Enviado por: maxir
Agrandar Letra
Reducir Letra
Imprimir

Acordes:
½ tono
| +0 |
½ tono
||
Volver


NIRVANA, Come as you are

 Riff

Em|-------------------------------------------|
B |-------------------------------------------|
G |--------0-0-------2---2-----0-0-------2----|
D |-0-0-1-2-2-2-2-1-0-0-0-0-1-2-2-2-2-1-0-0-0-|[Y asi sucesiva-
A |-------------------------------------------|mente]
E |-------------------------------------------|

Otra forma de hacerlo,para darle un toque de efecto!!

Em|-------------------------------------------|
B |-------------------------------------------|
G |-------------------------------------------|
D |-------------------------------------------|
A |------------10--10-----------12------------|
E |-10-10-11-12--12--12-12-11-10--10-10-------|

Mim
Come
       Re
As you are
        Mim
As you were
      Re          Mim
As I want you to be
        Re
As a friend
        Mim 
As a friend
      Re       Mim 
As an old enemy
           Re
Take your time
      Mim 
Hurry up
                Re
The Choice is your
          Mim 
Dont\' be late
        Re
Take a rest
        Mim
As a friend
       Re      Mi   Sol 
As an old memoriiiiia
     Mi   Sol       
memoriiiiia
     Mi   Sol 
memoriiiiia
     Mi   Sol 
memoriiiiia

Come
Dowsed in mud
Soaked in bleach
As I want you to be
As a trend
A a friend
As an old memoria
memoria
memoria
memoria

La          Do
    And I swear
        La            Do
That I don\'t have a gun
      La            Do
No I don\'t have a gun
      La            Do
No I don\'t have a gun

Em|-------------------------------------------|
B |-------------------------------------------|
G |--------0-0-------2---2-----0-0-------2----|
D |-0-0-1-2-2-2-2-1-0-0-0-0-1-2-2-2-2-1-0-0-0-|
A |-------------------------------------------|
E |-------------------------------------------|

Em|------------------------------------------------|
B |------------------------------------------------|
G |---4v-4v-7v-9v-4v-7v-9v-4v-7v-9-9s11v-9v-7v-4v--|
D |------------------------------------------------|
A |------------------------------------------------|
E |------------------------------------------------|

V=Vibrato[aca hacemos vibrar la cuerda] S=Slide[deslizamiento]

memoria
memoria
memoria
memoria {don\'t have a gun}

And I swear
That I don\'t have a gun
No I don\'t have a gun
No I don\'t have a gun
No I don\'t have a gun
No i don\'t have a gun

memoria
memoria

Bueno esto es todo la otra no tenia nada de esto,cuando precisen un acorde o algo contactenmen!!!
Aguante NIRVANA 
Saludos a mis amigos!!!!! 
Aviso: Este fichero es trabajo propio de su transcriptor y representa su interpretación personal de la canción. El material contenido en esta página es para exclusivo uso privado, por lo que se prohibe su reproducción o retransmisión, así como su uso para fines comerciales.

Califica esta canción


Comentarios en Facebook