Enviado por:
leo_bemol

No Te Va A Gustar, Al Vacio

Imprimir
INTRO

/------------------------------------------------
/------------------------------------------------
/--7*8-----6/7/6------11---11-------11----11---
/------9-7----------9----9--------9----9-------
/------------------------------------------------
/------------------------------------------------



-------------------------------------------------
-------------------------------------------------
-----------12/11-----7*8-----------6/7/6---------
---11/9---------------------9--7-----------------     X2
-------------------------------------------------
-------------------------------------------------



/-------------------------------------------------//
/--------17--15--13--10/12------------------------//
/----/15------------------------------------------//
/-------------------------------------------------//
/-------------------------------------------------//
/-------------------------------------------------//





Sim      F#m
  todo parece estar
Em            D          F#
  queriendo cerrar una herida
Sim         F#m
  lejos de abandonar
Em          D       F#
  cerca de una despedida

Sim          F#m
   no quiero más
Sim        F#m
   verte pasar

Sim        G                   F#  F#sus4
   solo me quiero sentar a esperar


lo fueron a matar
y lo dejaron con vida
sin sospechar
que todavía respira
no quiero más
verte pasar
solo me quiero sentar a esperar


ESTRIBILLO
                Em           A       D     G
que saltes al vacío y que no vuelvas nunca
              Em      G       F#                 Em       A         Sim
y que toda tu vida te mate la culpa de haberme robado una parte del alma
G                         F#
y es lo que a vos te hace falta
             Sim D A    Sim D A
alejarte de acá




/-----------------------------------------
/-----------------------------------------
/----------7-7---------9-7------7--------- X2
/-9---9-9-------7----------9-7-----9-7----
/--------------------------------------9--
/-----------------------------------------


/----------------
/----------------
/----------------
/-----7*---------
/--9-----9-------
/----------------


vos querés enseñar
pero te faltan ideas
vos sabés señalar
pero esperá que te vean
no quiero más
verte pasar
solo me quiero sentar a esperar y rogar

ESTRIBILLO

que saltes al vacío y que no vuelvas nunca
y que toda tu vida te mate la culpa de haberme robado una parte del alma
y es lo que a vos te hace falta

que saltes al vacío y que no vuelvas nunca
y que toda tu vida te mate la culpa de haberme robado una parte del alma
y es lo que a vos te hace falta
alejarte de acá


/-----------------------------------------
/-----------------------------------------
/----------7-7---------9-7------7--------- X2
/-9---9-9-------7----------9-7-----9-7----
/--------------------------------------9--
/-----------------------------------------


/----------------
/----------------
/----------------
/-----7*---------
/--9-----9-------
/----------------

bueno espero que les guste es re facil
hasta luego
Aviso: Este fichero es trabajo propio de su transcriptor y representa su interpretación personal de la canción. El material contenido en esta página es para exclusivo uso privado, por lo que se prohibe su reproducción o retransmisión, así como su uso para fines comerciales.

Califica esta canción


Comentarios en Facebook