Enviado por: fedex
Agrandar Letra
Reducir Letra
Imprimir


Otras Versiones de Pull Me Under:









Dream Theater, Pull Me Under

--------------- -------------- ------------- -----------------
--------------- -------------- ------------- ---------------0-
------------0-- -----------0-- ----------0-- --------0----2---
------7-------- -------4------ ------4------ -----------0-----
--------------- -------------- ------------- -----3-----------
--0------------ ---0---------- --0---------- --0--------------


intro sucesivamente.luego
a los 1;16


-------------------------------------------------------
-------------------------------------------------------
-------------------------------------------------------
----------6-5-----------------------------------6-5----
--2-2-2---6-5---2---2-----2--6-5---2----2----2--6-5----
--0-0-0---------0---0-----0--6-5---0----0----0---------
Aviso: Este fichero es trabajo propio de su transcriptor y representa su interpretación personal de la canción. El material contenido en esta página es para exclusivo uso privado, por lo que se prohibe su reproducción o retransmisión, así como su uso para fines comerciales.

Califica esta canción


Comentarios en Facebook