Acordes y tablaturas para guitarra

Acordes y Tablaturas
Usuario: Password:

Buscar:
Acordes y Tablaturas >> Letra S >> Acordes de Sinergia >> te enojai por todo
Acordes de te enojai por todo, Sinergia

Te enojai por todo

Sinergia






do.fasos.
 INTRO

e---------------------------  -----------------------------
b---------------------------  -----------------------------
g---------------------------  -----------------8-6---------
d-------6-9-9-8-6-9-8-6-----  -------6-9-9-8-6-----9-8-----
a--6-8-----------------6----X3---6-8-----------------------
E---------------------------  -----------------------------



    EN LA PARTE DE ACA VA:

e----------------------------------------------------------
b----------------------------------------------------------
g----------------------------------------------------------
d---------------------------5----5----5----5---------------
a----4----4----4----4----3----3----3----3------------------
E-2----2----2----2-----------------------------------------

Te enojai por todo, te enojai por todo
Te enojai por todo,te enojai por todo
te enojai por todo, te enojai por todo...

te enojai por todo, te enojai por todo
enojona enojona
te enojai por todo, te enojai por todo...


 Fa#                        Do
Si trabajo esta tarde y llego cansado
 Fa#                        Do
si te hago cariñito y me quedo dormido
 Fa#                        Do
si me tomo una chela, voló el estadio
 Fa#                        Do
si me da flojera y me quedo acostado


e---------------------------------------------
b---------------------------------------------
g---------------------------------------------
d---------------------------5----5----5----5--
a----4----4----4----4----3----3----3----3-----
E-2----2----2----2----------------------------

si no tiro la cadena si se tapa el baño
si me tiro un peo si tengo mal aliento
si estoy muy gordo si veo mucha tele
si juego play station o me quedo en el computador

   Fa#                        Do
bajando musica trash,dark,gotica,punk
metal,clasicos del  rock and roll!!!!!!!!!...


     ACA VA LO MISMO QUE EL INTRO
---------------------------------------------------
[Entonces pa' que estay conmigo po guachita
si tu sabi que yo te quiero tu sabi que yo soy asi
asi me conociste y no creo que vaya a cambiar...]
---------------------------------------------------


e---------------------------------------------
b---------------------------------------------
g---------------------------------------------
d---------------------------5----5----5----5--
a----4----4----4----4----3----3----3----3-----
E-2----2----2----2----------------------------

Te enojai por todo,te enojai por todo
te enojai por todo,te enojai por todo
te enojai por todo, te enojai por todo

Te enojai por todo, te enojai por todo
Enojona, enojona
te enojai por todo, te enojai por todo

   Fa#
[Satisfaccion yo quiero darte pura satisfaccio
   Fa#
feliz, yo quiero verte siempre feliz...
   Fa#
Satisfaccion yo quiero darte pura satisfaccion]

Pero...
e---------------------------------------------
b---------------------------------------------
g---------------------------------------------
d---------------------------5----5----5----5--
a----4----4----4----4----3----3----3----3-----
E-2----2----2----2----------------------------

Te enojai por todo,te enojai por todo
Enojona,enojona
te enojai por todo!!!!!!!!

   Fa#                        Do
Cuando chico mis viejos me retaban
en la escuela el profe me echaba
los micreros me insultaban
y los pacos me apaleaban
ahora tu estay en la misma dejame vivir tranquilo
ultimamente anday super alterada

Pero...
e---------------------------------------------
b---------------------------------------------
g---------------------------------------------
d---------------------------5----5----5----5--
a----4----4----4----4----3----3----3----3-----
E-2----2----2----2----------------------------
te enojai por todo, te enojai por todo
Enojona, enojona
te enojai por todo,te enojai por todo
Enojona enojona

     Fa#                        Do
te enojai por todo, te enojai por todo
     Fa#                        Do
te enojai por todo, te enojai por todo...
   Do
Enojona!!!!!!!

e-------------------------
b-------------------------
g-------------5-----------
d---4---4---4---4--5------
a-----3---3--------5------
E------------------2------

FIN


La guitarra esta demas decir que se toka con distorcion

espero que les sirva


N i i q o w! 

Que te parecio? Calificalo con estrellas!!

Rating: 7.7/10 (57 votos)

Este fichero es trabajo propio de su transcriptor y representa su interpretación personal de la canción. El material contenido en esta página es para exclusivo uso privado, por lo que se prohibe su reproducción o retransmisión, así como su uso para fines comerciales.


Deja tus comentarios:
Letras de canciones | Musica Independiente