Acordes y tablaturas para guitarra

Acordes y Tablaturas
Usuario: Password:

Buscar:
Acordes y Tablaturas >> Letra R >> Acordes de Rosana >> Si tu no estas aquí
Acordes de Si tu no estas aquí, Rosana

Si tu no estas aquí

Rosana






asi empieza:


      E  A  D  G  B  E
C ----0  3  2  0  1  0

C7 ---0  3  2  3  1  0

Em/G –0  2  2  0  3  3

F ----1  3  3  2  1  1

Am ---0  0  2  2  1  0

Amº --1  1  3  3  2  1

Cm ---3  3  5  5  4  3

(Em) –7  7  6  6  5  7

(F) -–8  8  10 10 10 8

Em ---0  2  2  0  0  0

G7 ---3  2  0  0  0  1

C9 ---0  3  2  0  1  3


Intro:

    C  C7       C9    Em/G         F
E|---------------------------------1-------------------
A|---------3------------2------------3-----------
D|--------------------------2----------3----------------
G|---------------0------------0----------2---------------
B|--1---3----------1----3-------3--1--------------------
E|---------0---------3----3------------------------

    Am   Amº  Cm       (Em)         (F)
E|---------------------------------------------------
A|--0-----1----3---------7-------------------7-----
D|----------------5--------9-------9------------10---
G|------------------5--------9-------9-------------10-
B|-----------------------------8-8----------10--------10
E|--0-----1----3-----3------------------7-8-----------


C    Em       F
No quiero estar sin ti,
    G                            C  ( a )
Si tu no estas aquí, me sobra el aire.
 C         Em          F
No quiero estar así,
   G                            C       (b)
Si tu no estas la gente se hace nadie.
   Em                     F
Si tu no estas aquí no se,
     G                   C
Que diablos hago amándote,
    Em                     F
Si tú no estas aquí sabrás,
  G (rasgueado)
Que dios no va a entender,
                (c)
por que te vas.


 C             Em          F
No quiero estar sin ti,
   G               G7             C(d)
Si tu no estas aquí me falta el sueño
  C9         Em/G        F
No quiero andar así,
   G               G7                C
Latiendo un corazón de amor sin dueño


****
C                           Em
Si tu no estas aquí no se,
  F                G        C
Que diablos hago amándote,
   Em                       F
Si tú no estas aquí sabrás,
      G               G7                    F
Que dios no va a entender, por que te vas.

     C
Derramare mis sueños,
          Em
Si algún día no te tengo,
   F                G                 C
Lo más grande se hará lo más pequeño.

       C            Em                F
Paseare en un cielo sin estrellas esta vez,
  G
Tratando de entender quien hizo,
  Em
Un infierno el paraíso,

 F                  G
No te vallas nunca,
       C
por que no
     Em                 F
No puedo estar sin ti
     G            G7                  C
Si tu no estas aquí, me quema el aire.
     Em                   F
Si tú no estas aquí sabrás,
       G  G      G
Que dios no va entender, por que te vas.

( aquí se repite el intro y después solo den un C rasgueado
haciaabajo y suave)








Notas:
1.-
(a)---tocas las primera cuerda en el 3º traste, después
 la segunda en el 3º traste y la recurres hasta el 5º traste
para luego regresar al 3º.  Lo de la 2º cuerda lo haces rápido

(b)---tocas la segunda cuerda en el 1º traste, luego en el
3º y después la primera cuerda al aire. (como el primer acorde
del intro)

(c)---tocar la 6º cuerda en el traste diez y la recorres
despacio hasta la cejilla superior de la guitarra.

(d)---es un arreglo para C:
     C
E|-------------------------------------
A|---3-------------3---------------0---
D|-----2-------------2----------------- ... después de esto
G|-------0-------0-----0---------------    continúas con C9
B|---------1---1---------1-3-1-1-3-1---
E|-----------0-------------------------


2.- la estrofa siguiente de (c) lleva un rasgueo más o menos así:

       C              Em            F
E|----------------------------------1--------------
A|-----3--------------2----------------------------
D|-------2--------------2--------------3-----------
G|---------0-------0------0-------0------2---------
B|-----------1---1----------0---0----------1-------
E|-------------0--------------0--------------1-----  ... etc.


3.- a partir de *** todos los acordes son rasgueados.

4.- en el último renglón, es un rasgueo  marcado hacia abajo por
 cada sol.

Bueno, eso es todo, escuchen la canción, para que le agarren
 ritmo a los rasgueos.


Que te parecio? Calificalo con estrellas!!

Rating: 7.2/10 (64 votos)

Este fichero es trabajo propio de su transcriptor y representa su interpretación personal de la canción. El material contenido en esta página es para exclusivo uso privado, por lo que se prohibe su reproducción o retransmisión, así como su uso para fines comerciales.


Comentario de CHUCHO13K
esta canion es de Erick Israel Montejano pero suena bien http://lacuerda.net/tabs/s/sin_bandera/si_tu_no_estas_aqui-4.shtml
Deja tus comentarios:

Letras de Rosana
Letras de canciones | Musica Independiente