Acordes y tablaturas para guitarra

Acordes y Tablaturas
Usuario: Password:

Buscar:
Acordes y Tablaturas >> Letra Z >> Acordes de Zoe >> paula
Acordes de paula, Zoe

Paula

Zoe






b7.bm.c.em.g.
 intro. batteria

     Em         C          B7        G
1|-7---7---|--8-----8---|-7---7---|--5---5---|
2|-8---8---|--10---10---|-8---8---|--7---7---|
3|---9---9-|-----9----9-|---7---7-|----7---7-|
4|---------|------------|---------|----------|
5|---------|------------|---------|----------|
6|---------|------------|---------|----------|

Em  C         G     B7       Em
yo se que menti yo se que falle
    C          G       B7          Em
que te traisione y que me aleje de ti
C              G    B7         Em      C              G    B7
vagando en el denso mar de la falsedad de espalda al infinito

solillo.

  Em  C  G  B7 2x
1]--------------------------------------------[
2]--------------------------------------------[
3]-----0-2-4-4/5-4/5-4-0----------------------[
4]-0-2-------------------4/5--4/5-4-0---------[
5]------------------------------------2/3-2---[
6]--------------------------------------------[

Em     C     G  B7        Em     C            G        B7          Em
me puedes matar me puedes dejar pero nunca tendras que te deja de amar
C             G       B7     Em  C           G    B7
tu sabes que eres mi otra mitad mi espiritu gemelo

coro
Em                  C                  Em            C
paula no me olvides paula para siempre paula en el alma
                       G                  B7              C
me falta tu mirada tu sonrisa dulce, y tu cuerpo al despertar
                                   Em
donde estas?, donde estas?, donde vas?

solillo.

  Em  C  G  B7 2x
1]--------------------------------------------[
2]--------------------------------------------[
3]-----0-2-4-4/5-4/5-4-0----------------------[
4]-0-2-------------------4/5--4/5-4-0---------[
5]------------------------------------2/3-2---[
6]--------------------------------------------[

Em  C        G     B7      Em       C       G        B7       Em
se que te perdi cuando resvale pero nunca jamas te dejare de amar
C             G       B7     Em  C           G    B7
tu sabes que eres mi otra mitad mi espiritu gemelo

coro
Em                  C                  Em            C
paula no me olvides paula para siempre paula en el alma
                       G                 B7              C
me falta tu mirada tu sonrisa dulce, y tu cuerpo al despertar
C                      Bm           C Bm
donde estas?, donde estas?, donde vas? ah!

  solillo        [C Bm]4x
1]---------15----14----------15----14----------15----14------------[
2]-8-10-12----12-----8-10-12----12-----8-10-12----12-----8-10-12-13[
3]-----------------------------------------------------------------[
4]-----------------------------------------------------------------[
5]-----------------------------------------------------------------[
6]-----------------------------------------------------------------[
G                                    Bm            C
paula invisible, paula transparente, paula en el alma
                          G              B7            C
me falta tu mirada tu sonrisa dulce, y tu cuerpo al despertar
                      Bm            C   Bm
donde estas?, donde estas?, donde vas?.

     [C Bm] 3x
1]------------------------------[
2]-8-10-12---8-10-12---8-10-12--[
3]------------------------------[
4]------------------------------[
5]------------------------------[
6]------------------------------[

pues esta un poko dificil pero si le agarras ba a salir chida

 

Que te parecio? Calificalo con estrellas!!

Rating: 8.8/10 (202 votos)

Este fichero es trabajo propio de su transcriptor y representa su interpretación personal de la canción. El material contenido en esta página es para exclusivo uso privado, por lo que se prohibe su reproducción o retransmisión, así como su uso para fines comerciales.


Deja tus comentarios:
Letras de canciones | Musica Independiente