Acordes y tablaturas para guitarra

Acordes y Tablaturas
Usuario: Password:

Buscar:
Acordes y Tablaturas >> Letra G >> Acordes de Guns N´ Roses >> Sweet Child of Mine
Acordes de Sweet Child of Mine, Guns N´ Roses

Sweet Child of Mine

Guns N´ Roses






a.a5.b5.c.c5.d.d5.e5.em.
g.g5.
 INTRO: punteo
|-----------------15---------14-------|
|-----15------------------------------|
|---------14--12------14-----------14-|
|%-12--------------------------------%|
|-------------------------------------|
|-------------------------------------|

|------------------15--------14-------|
|------15-----------------------------|
|---------14--12--------14---------14-|
|%-14--------------------------------%|
|-------------------------------------|
|-------------------------------------|
_______________________________________
end of Riff A 

|----------------------15----------14--------|
|---------15---------------------------------|
|-----12-------14--12--------14-----------14-|
|%------------------------------------------%|
|--------------------------------------------|
|--------------------------------------------|

|---------------------15-------14------|
|-------15-----------------------------|
|-----------14--12--------14--------14-|
|%-12---------------------------------%|
|--------------------------------------|
|--------------------------------------|

INTRO: empesando al rasgeo 
[D] [D]
[C] [C]
[G] [G]
[D] [D]

repite una vez
_______________________________________
D                         D
She's got a smile that it seems to me
 C                        C
Reminds me of childhood memories
G
Where everything
G                      D             D

Was as fresh as the bright blue sky
D                         D
Now and then when I see her face
 C                        C
She takes me away to that special place
Reminds me of childhood memories
G
And if I'd stare too long
G                 D             D
I'd probably break down and cry


 
A        C      D         D
Ohhh Sweet child o' mine
A        C      D         D
ohhh ohh ohh Sweet love of mine


SOLO 1. Base:
[D] [D]
[C] [C]
[G] [G]
[D] [D]


//Repite 2 veces acordes de versos//
She's got eyes of the bluest skies
As if they thought of rain
I hate to look into those eyes
And see an ounce of pain
Her hair reminds me of a warm safe place
Where as a child I'd hide
And pray for the thunder
And the rain
To quietly pass me by

A        C      D         D
Ohhh Sweet child o' mine
A        C      D          D
ohhh ohh ohh Sweet love of mine

SOLO 2 + 3. Base:
[D] [D]
[C] [C]
[G] [G]
[D] [D]
//repite 1 vez mas//


A        C      D         D
Ohhh Sweet child o' mine
A        C      D          D
ohhh ohh ohh Sweet love of mine
A        C      D         D
Ohhh Sweet child o' mine!
A        C      D          D
ohhh ohh ohh Sweet love of mine

SOLO FINAL 1 + 2.
Base:
[E5] - [G5] - [A5] - ...    
[C5]-[D5]- [G5]

//repite 7 veces más//

-------------|---------------------------------------|-----------------------
-------------|---------------------------------------|-----------------------
-12p14h12----|--12^----------------------12h14p12----|--12-12-------14-14p12-
----------14-|---------14p12-14~~~~--x-x----------14-|--------14p12----------
-------------|---------------------------------------|-----------------------
-------------|---------------------------------------|-----------------------
                    B5    C5                   D5       G5  
-----------------------|--12-12------15-15p12--15---14-----12h15p12----|
--12-12-------15-15p12-|--------15p12-------------------15----------15-|
--------14p12----------|-----------------------------------------------|
-----------------------|-----------------------------------------------|
-----------------------|-----------------------------------------------|
-----------------------|-----------------------------------------------|
  Em                                                    G5
|-----12-----------12-----------12----------12-------|-----12----------12-
|-15^----15p12--------15p12-15^----15p12-------15p12-|--15^--15p12--------
|--------------14^----------------------14^----------|-------------14^----
|----------------------------------------------------|--------------------
|----------------------------------------------------|--------------------
|----------------------------------------------------|--------------------
                                       A5
----------12-----------12-------15^-|--15^---
-15p12-15^--15p12----12---15p12-----|--------
------------------14^---------------|--------
------------------------------------|--------
------------------------------------|--------
------------------------------------|--------
                       B5     C5                          D5 
--15~~~~~~~~12h15p12----12-|-------12------------------------------------------
---------------------15----|--15^------15p12------------------15---------------
---------------------------|------------------14^p12-14^---------14---14p12----
---------------------------|------------------------------------------------14-
---------------------------|---------------------------------------------------
---------------------------|---------------------------------------------------

[E5] - [G5] - [A5] - ...    
[C5]-[D5]- [G5]
//repite otras 7 veces más//
Where do we go
Where do we go now
Where do we go
Sweet child o' mine 
  

Que te parecio? Calificalo con estrellas!!

Rating: 7.0/10 (169 votos)

Este fichero es trabajo propio de su transcriptor y representa su interpretación personal de la canción. El material contenido en esta página es para exclusivo uso privado, por lo que se prohibe su reproducción o retransmisión, así como su uso para fines comerciales.


Deja tus comentarios:

Letras de Guns N´ Roses
Letras de canciones | Musica Independiente