Acordes y tablaturas para guitarra

Acordes y Tablaturas
Usuario: Password:

Buscar:
Acordes y Tablaturas >> Letra M >> Acordes de METALLICA >> Fade to Black
Tablatura de Fade to Black, METALLICA

Fade to Black

METALLICA






Principio

|-----------------|-----------------| 
|-----------------|-----------------| 
|-----0-----------|-----0-----------| 
|---4---4---4---4-|---4---4---4---4-| 
|-2-------2---5---|-0-------0---5---| 
|-----------------|-----------------|


-----------------|-------------------|
-----------------|-------------------|
-----0-----------|------2------------|
---4---4---4---4-|---2-----2---2---2-|
-2-------2---5---|-4---------4---0---|
-----------------|-------------------|


solo

|--------|-----------------------------|
|----7---|-7-8-8/10--8-10-/12-10-8-/10-|
|--7-----|-----------------------------|
|-9----9-|-----------------------------|
|--------|-----------------------------|
|--------|-----------------------------|

----------------------------------------|----------------------|
--12p10p87/87---7-7h8-7---7-----------|----------8p7--8/10---|
----------------9---------9---9-7-------|-76--7p6-------------|
----------------------------------7-7/9-|----------------------|
----------------------------------------|----------------------|
----------------------------------------|----------------------|

|----14-19p14-----15p14-----------------------------------|
|-15---------15--------15---17-15-14----------------------|
|--------------16--------14----------16-14b16r14-14h16----|
|------------------------------------------------------14-|
|---------------------------------------------------------|
|---------------------------------------------------------|


--------------------------------------19-17-15-|
------------14-15-14h15p14---14h15-14----------|
------14-16----------------16------------------|
-14h16-----------------------------------------|
-----------------------------------------------|
-----------------------------------------------|

|-15h17-14------|-14-15-14-----|-14-15-14--17-15-14-|
|----------15---|---------15---|---------15---------|
|------------16-|-----------14-|--------------------|
|---------------|--------------|--------------------|
|---------------|--------------|--------------------|
|---------------|--------------|--------------------|


------------------------------12-13-15-13h15p13--17-|
----------------------12-13-15-----------------15---|
-----------------12-14------------------------------|
---------12-14-15-----------------------------------|
-12-14-15-------------------------------------------|
----------------------------------------------------|


Que te parecio? Calificalo con estrellas!!

Rating: 7.7/10 (408 votos)

Este fichero es trabajo propio de su transcriptor y representa su interpretación personal de la canción. El material contenido en esta página es para exclusivo uso privado, por lo que se prohibe su reproducción o retransmisión, así como su uso para fines comerciales.


Comentario de ultimatedragon
Q onda mucha sta cancion s bn chilera asi q ahi c las dejo.. pro si quieren vr el video lo pueden vr de sta pag.. http://www.farhatguitar.com/metallica_9/fade-to-black_47/part_552 .... ahi lo puden vr bn..
Deja tus comentarios:

Letras de METALLICA
Letras de canciones | Musica Independiente