Enviado por: fnx neo metal
Agrandar Letra
Reducir Letra
Imprimir



Limp Bizkit, behind blue eyes

E|-------------------0-------------|---------------0-----------
B|-----------------------0-------0-|------------------0-----0--
G|---------------------------0-----|---------------------0-----
D|---------2-----------------------|---------0-----------------
A|------2------2-------------------|-----2------2--------------
E|---0-----------------------------|--3------------------------

E|-------------------0-------------|
B|-----------------------0-------0-|
G|---------------------------0-----|
D|---------0-----------------------|
A|------2-----2--------------------|
E|---3-----------------------------|

E|--------------|--0----------------|
B|---------3----|-----3---3---------|
G|------2-----0-|-------2-----------| (2)
D|----0---------|-------------------|
A|--------------|-------------------|
E|--------------|-------------------|


E|--------------|--0----------------|
B|--------------|-----0---0---------|
G|-------0------|-------0-----------| (2)
D|-----2---2----|-------------------|
A|---3----------|-------------------|
E|--------------|-------------------|

E|--------------|--0----------------|
B|--------------|-----0---0---------|
G|-------2------|-------2-----------| (2)
D|-----2---2----|-------------------|
A|---0----------|-------------------|
E|--------------|-------------------|



Aviso: Este fichero es trabajo propio de su transcriptor y representa su interpretación personal de la canción. El material contenido en esta página es para exclusivo uso privado, por lo que se prohibe su reproducción o retransmisión, así como su uso para fines comerciales.
comentario del colaborador: =0 WA ok hay estan las tablaturas cualquier reclamo ya sabe donde [email protected]

Califica esta canción


Comentarios en Facebook