Acordes y tablaturas para guitarra

Acordes y Tablaturas
Usuario: Password:

Buscar:
Acordes y Tablaturas >> Letra G >> Acordes de Guns N´ Roses >> Sweet Child O Mine
Bajo de Sweet Child O Mine, Guns N´ Roses

Sweet Child O Mine

Guns N´ Roses






'Sweet Child O' Mine', Guns N' Roses
_________________________________________
+Bien ya subí la Tablatura de Guitarra, los Acordes... ahora va la Tablatura de Bajo.

-Album: "Apetite for Destruction" (1986)
-Afinación: Eb Ab Dd Gb, un semi tono más abajo (todas las canciones de Guns N' Roses usan esta afinación)

*Por: Sebas A., Buenos aires, Argentina, 2008.
*Email msn: [email protected]
_________________________________________

INTRO/SOLO DE BAJO:

                       Db
Gb|--------------------------4------------------------------------------------
Db|----------4-------4-5-7-----7-5-4------------------------------------------
Ab|(9)/5--5--------5-----------------5----------------------------------------
Eb|---------------------------------------------------------------------------|

                       Cb
Gb|---------------------------------------------------------------------------|
Db|-------5-------3-2---3-2---------------------------------------------------
Ab|-3--3--------3-----3-----3-------------------------------------------------
Eb|---------------------------------------------------------------------------|

   Gb               Db
Gb|---------------------------------------------------------------------------|
Db|---------5-------5-4---5-4-------------------------------------------------
Ab|------3/5------5-----5-----5/--(15)----------------------------------------
Eb|3--------------------------------------------------------------------------

=====================================================
'She's got a smile that it seems to me
Reminds me of childhood memories
Where everything
Was as fresh as the bright blue sky'

Gb|---------------------------------------------------------------------------|
Db|---------------------------------------------------------------------------|
Ab|-5---5-5---5-5---5--5--4-/-3---3-3---3--3-----3---3---3--------------------|
Eb|---------------------------------------------------------------------------|

Gb|---------------------------------------------------------------------------|
Db|-----------------------5----------------------------------------------------|
Ab|---------------------------5---5-5---5--5-----5---5---5---------------------
Eb|-3---3-3---3-3---3--3------------------------------------------------------

Gb|---------------------------------------------------------------------------|
Db|---------------------------------------------------------------------------|
Ab|-5---5-5---5-5---5--5--5-/-3---3-3---3--3-----3---3---3--------------------|
Eb|---------------------------------------------------------------------------|

Gb|---------------------------------------------------------------------------|
Db|-----------------------5----------------------------------------------------|
Ab|---------------------------5---5-5---5--5-----5---5---5/15-15-15-15---------
Eb|-3---3-3---3-3---3--3------------------------------------------------------

Now and then when I see her face
She takes me away to that special place
And if I'd stare too long
I'd probably break down and cry 
===============================================
****'Ohhh ohh ohh sweet child o minee...!'
'ohh ohh ohh uohh sweet love of mine...!'*****
Gb|---------------------------------------------------------------------------|
Db|---------------------------------------------------------------------------|
Ab|----------------------3-----3-----3-----3-----3-----5----5----5----5---5---
Eb|-5---5---5---5----5--------------------------------------------------------


Gb|---------------------------------------------------------------------------|
Db|---------------------------------------------------------------------------|
Ab|-5---5---5----5---5---------------------------------------------------------
Eb|---------------------------------------------------------------------------|
//Repite una vez más//
===============================================
SOLO:
Gb|---------------------------------------------------------------------------|
Db|---------------------------------------------------------------------------|
Ab|-5---5-5---5-5---5--5--4-/-3---3-3---3--3-----3---3---3--------------------|
Eb|---------------------------------------------------------------------------|

Gb|---------------------------------------------------------------------------|
Db|-----------------------5----------------------------------------------------|
Ab|---------------------------5---5-5---5--5-----5---5---5---------------------
Eb|-3---3-3---3-3---3--3------------------------------------------------------

===============================================
She's got eyes of the bluest skies
As if they thought of rain
I hate to look into those eyes
And see an ounce of pain
Her hair reminds me of a warm safe place
Where as a child I'd hide
And pray for the thunder
And the rain
To quietly pass me by

Gb|---------------------------------------------------------------------------|
Db|---------------------------------------------------------------------------|
Ab|-5---5-5---5-5---5--5--5-/-3---3-3---3--3-----3---3---3--------------------|
Eb|---------------------------------------------------------------------------|

Gb|---------------------------------------------------------------------------|
Db|-----------------------5----------------------------------------------------|
Ab|---------------------------5---5-5---5--5-----5---5---5---------------------
Eb|-3---3-3---3-3---3--3------------------------------------------------------

Gb|---------------------------------------------------------------------------|
Db|---------------------------------------------------------------------------|
Ab|-5---5-5---5-5---5--5--5-/-3---3-3---3--3-----3---3---3--------------------|
Eb|---------------------------------------------------------------------------|

Gb|---------------------------------------------------------------------------|
Db|-----------------------5----------------------------------------------------|
Ab|---------------------------5---5-5---5--5-----5---5---5/15-15-15-15---------
Eb|-3---3-3---3-3---3--3------------------------------------------------------

===============================================
****'Ohhh ohh ohh sweet child o minee...!'
'ohh ohh ohh uohh sweet love of mine...!'*****
Gb|---------------------------------------------------------------------------|
Db|---------------------------------------------------------------------------|
Ab|----------------------3-----3-----3-----3-----3-----5----5----5----5---5---
Eb|-5---5---5---5----5--------------------------------------------------------


Gb|---------------------------------------------------------------------------|
Db|---------------------------------------------------------------------------|
Ab|-5---5---5----5---5---------------------------------------------------------
Eb|---------------------------------------------------------------------------|
//Repite una vez más//
===============================================
SOLO (repetir 1 vez más):
Gb|---------------------------------------------------------------------------|
Db|---------------------------------------------------------------------------|
Ab|-5---5-5---5-5---5--5--4-/-3---3-3---3--3-----3---3---3--------------------|
Eb|---------------------------------------------------------------------------|

Gb|---------------------------------------------------------------------------|
Db|-----------------------5----------------------------------------------------|
Ab|---------------------------5---5-5---5--5-----5---5---5---------------------
Eb|-3---3-3---3-3---3--3------------------------------------------------------

===============================================
****'Ohhh ohh ohh sweet child o minee...!'
'ohh ohh ohh uohh sweet love of mine...!'*****
Gb|---------------------------------------------------------------------------|
Db|---------------------------------------------------------------------------|
Ab|----------------------3-----3-----3-----3-----3-----5----5----5----5---5---
Eb|-5---5---5---5----5--------------------------------------------------------


Gb|---------------------------------------------------------------------------|
Db|---------------------------------------------------------------------------|
Ab|-5---5---5----5---5---------------------------------------------------------
Eb|---------------------------------------------------------------------------|
//Repite 3 veces más//
===============================================

SOLO Y OUTTRO:

RIFF QUE USA CASI TODA LA CANCIÓN:
Gb|---------------------------------
Db|---------------------------------
Ab|---------------------3-3-3-5-----
Eb|0--0---3--3---5--5-5-----------3-
___________________________________________

Where do we go 
where do we go
where do we go
where do we go now
where do we go... etc

Gb|---------------------------------
Db|---------------------------------
Ab|---------------------------------
Eb|0-x-0-x-3-x-3-x--5--5-5-55555555555-
'***...WHERE DO WE GO NOW???? OH OH OH OH OH OH OH!!!***' (y vuelve al RIFF)

__________________________________________

Gb|---------------------------------
Db|---------------------------------
Ab|-------------------5-------------
Eb|0--0---3--3---5--5---7-6-5-4-3-0-
                      'NO NO NO NO NO NO NO!'
'sweet child... sweet...!

ENDING:
Gb|------------------------------------------
Db|------------------------------------------
Ab|------------------------------------------
Eb|0--0---3--3---5...----5/-3---/2/---0...---
 CHIILLDD O MINE....!'


________________________________________________________
Referencias:


/: slide, deslizar hasta.
x: palm mutting.
(número): Nota fantasme y/o suave.
...: let ring, dejar sonar.


Que te parecio? Calificalo con estrellas!!

Rating: 7.4/10 (99 votos)

Este fichero es trabajo propio de su transcriptor y representa su interpretación personal de la canción. El material contenido en esta página es para exclusivo uso privado, por lo que se prohibe su reproducción o retransmisión, así como su uso para fines comerciales.


Deja tus comentarios:

Letras de Guns N´ Roses
Letras de canciones | Musica Independiente