Acordes y tablaturas para guitarra

Acordes y Tablaturas
Usuario: Password:

Buscar:
Acordes y Tablaturas >> Letra R >> Acordes de Raices >> Cae la lluvia
Acordes de Cae la lluvia, Raices

Cae la lluvia

Raices






a.do.fa.la.rem.solm.
 Espero q les sirva suena mejor con una guitarra acustica

Punteada del intro

e/----------------------------------------8-56-5-6-5---------------/
b/-5/6-6-5-5-------------------5-5-6-8-88--------------------------/
g/-----------7—77-555----------------------------------------------/
d/-------------------8-7-8-7-5-------------------------------------/
a/-----------------------------------------------------------------/
E/-----------------------------------------------------------------/


e/---------------------------------------8-565---------------------/
b/-5/6-6-5-5-------------------5-5-6-8-88------8-10-8-6-8-6-5------/
g/-----------7—77-555----------------------------------------------/
d/-------------------8-7-8-7-5-------------------------------------/
a/-----------------------------------------------------------------/
E/-----------------------------------------------------------------/


Rem               Solm
Hoy... me siento solo
Do                     Fa     La 
Porque no he podido conquistarte
Rem               Solm
siempre que quiero hablarte
Do                       Fa     La 
de lo q siento por ti me ignoras
Rem                   Solm
y me siento triste al saber
Do                  Fa       La 
que tu jamas me corresponderas

CORO

Rem                                           Solm
Entonces que caiga la lluvia como lagrimas a mi corazon
Do                                 Fa              La 
y hare que sople el viento como suspiro de esta cancion
Rem                         Solm
mañana sera otro dia cuando salga el Sol 
 Do                       Fa     La             Rem
quizas pueda llegar a tu corazon... en esta cancion
                            Solm
Me muero, me entierro y me quemo
Do                                              Fa        La 
me muerdo los labios saber que ya tu no me quieres y que jamas
             Rem      Solm
me corresponderas...no no no.
Do                  Fa            La 
otra ves amanecio nublado bajo el Sol 

e/----------------------------------------8-56-5-6-5---------------/
b/-5/6-6-5-5-------------------5-5-6-8-88--------------------------/
g/-----------7—77-555----------------------------------------------/
d/-------------------8-7-8-7-5-------------------------------------/
a/-----------------------------------------------------------------/
E/-----------------------------------------------------------------/


e/---------------------------------------8-565---------------------/
b/-5/6-6-5-5-------------------5-5-6-8-88------8-10-8-6-8-6-5------/
g/-----------7—77-555----------------------------------------------/
d/-------------------8-7-8-7-5-------------------------------------/
a/-----------------------------------------------------------------/
E/-----------------------------------------------------------------/


Rem                   Solm
y me siento triste al saber
Do               Fa          La 
que tu jamas me corresponderas

CORO

Rem                                          Solm
Entonces que caiga la lluvia como lagrimas a mi corazon
Do                                  Fa           A 
y hare que sople el viento como suspiro de esta cancion
Rem                            Solm
mañana sera otro dia cuando salga el Sol 
 Do                    Fa       La                Rem
quizas pueda llegar a tu corazon... en esta cancion
                          Solm
Me muero, me entierro y me quemo
Do                                              Fa        La 
me muerdo los labios saber que ya tu no me quieres y que jamas
             Rem      Solm
me corresponderas...no no no.


Do                    Fa      La        Rem
Otra vez amanecio nublado y cayo la lluvia
 

Que te parecio? Calificalo con estrellas!!

Rating: 8.0/10 (178 votos)

Este fichero es trabajo propio de su transcriptor y representa su interpretación personal de la canción. El material contenido en esta página es para exclusivo uso privado, por lo que se prohibe su reproducción o retransmisión, así como su uso para fines comerciales.


Deja tus comentarios:
Letras de canciones | Musica Independiente