Enviado por:
chucho13k

The Beatles, Let It Be

 Let It Be



Intro: C  G  Am  Fmaj7  F6  C  G  F Em Dm C  

       C              G                 Am          Fmaj7    F6
When I find myself in times of trouble, Mother Mary comes to me
   C                 G              F  C
Speaking words of wisdom, let it be
    C              G                 Am              Fmaj7    F6
And in my hour of darkness, She is standing right in front of me
   C                 G              F  C  G/B
Speaking words of wisdom, Let it be
       Am         C/G         F          C
Let it be, let it be, let it be, let it be
C                G              F  Em Dm C  
Whisper words of wisdom, let it be

And when the broken hearted people, Living in the world agree
There will be an answer, let it be
But though they may be parted, There is still a chance that they may see
There will be an answer, let it be

Let it be, let it be, let it be, let it be
There will be an answer, let it be
Let it be, let it be, let it be, let it be
Whisper words of wisdom, let it be
				
F C/E G7/D C Bb F/A G F C  F  C  G F C

[Solo]

Let it be, let it be, let it be, let it be
Whisper words of wisdom, let it be

[ Segundo Solo ]
And when the night is cloudy, There is still a light that shines on me
Shine on till tomorrow, let it be
I wake up to the sound of music, Mother Mary comes to me
Speaking words of wisdom, let it be

F C/E G7/D C Bb F/A G F C

--------------------------------------------------------

Riff Do Teclado E Encerramento:

   F  C/E  G7/D  C  Bb  F/A  G  F  C    F   C   G  F  C
e|-5---3----1----0-------------------|----------3--1--0-|
B|-6---5----3----1--3----1---0-----1-|--1---1---0--1--1-|
G|------------------3----2---0--2--0-|--2---0---0--2--0-|
D|------------------------------3--2-|--3---2---0--3--2-|
A|---------------------------------3-|--3---3---2--3--3-|
E|-----------------------------------|--1-------3--1----|

Solo:

e|---------------------------------------------------------8---------|
B|-------------------------------------------------------------------|
G|-5----5-----------------------------5-7b9---9r7-5~---7/9---97-5h7-|
D|-5h7--5----------------5-5---5--5/7--------------------------------|
A|---------7-5--3--3-5/7-----7---------------------------------------|
E|-------------------------------------------------------------------|

e|------5------------------------------------------------------------|
B|-----------------------------------------------------8-----8----8--|
G|-7b9------9r7-5-------------------------5--5---5-7/9---7/9--7/9----|
D|-----------------7p5-7p5------------5h7------7---------------------|
A|--------------------------75-3h5-3--------------------------------|
E|-------------------------------------------------------------------|

e|----------8-10b12----12r10-8h10-8-----17r15------------------------------|
B|-10--8h10--------------------------0---------17r15p13-15-b17-15p13h15-13-|
G|-------------------------------------------------------------------------|
D|-------------------------------------------------------------------------|
A|-------------------------------------------------------------------------|
E|-------------------------------------------------------------------------|

Segundo Solo [executado durante o último refrão]:

e|------------------------------------------5----------------------|
B|----------------------------------------------------------8-8—8--|
G|-5--5---5--5--5---5-----5-----5-----5-7b9----9r7--5-7-7/9--------|
D|----5h7-------5h7----5h7---5h7--5h7------------------------------|
A|-----------------------------------------------------------------|
E|-----------------------------------------------------------------|

e|-----------------------------------------|
B|-15r13--10-8h10-8------------------------|
G|------------------97-5-7b9--5------5-5~-|
D|--------------------------------5h7------|
A|-----------------------------------------|
E|-----------------------------------------| 
Aviso: Este fichero es trabajo propio de su transcriptor y representa su interpretación personal de la canción. El material contenido en esta página es para exclusivo uso privado, por lo que se prohibe su reproducción o retransmisión, así como su uso para fines comerciales.
comentario del colaborador: Creo que va así la saque de terra

Califica esta canción


Comentarios en Facebook