Enviado por:
Anonimo

Andres Calamaro, Algo Contigo

Imprimir
símbolos :

^ = acento	6,8 = ligado entre el 6 y el 8 
/ = slide ascendente  = slide descendente


Guitara 1
--14-12----10-12,10-9-10-13-----13-12-13,12-12,10-10-109
------------------------------------------------------------------------
------------------------------------------------------------------------
------------------------------------------------------------------------
------------------------------------------------------------------------
------------------------------------------------------------------------



Guitara 2
--------3,-2------------------------3,1------------------------0---
-----------3-------------------------3--------------------------2--
-----------2-------------------------2--------------------------2--
-----------0-------------------------0--------------------------2--
-------------------------------------------------------------0-----
--------------------------------------------------------------------



Guitara 1
--------------------------------14----------0-10-10-9-9-9-------
--------13-12-15,14-13-14--------14---------------------7-----
---------------------------------------12---------------------------
---------------------------------------------------------------------
---------------------------------------------------------------------
---------------------------------------------------------------------



Guitara 2
---------------------------------------------------------------------
-------------------------------------2------------3-----------------
----2-------------------------------3-------------------------------
----2-------------------------------2------------4------------------
----4----------------------------------------2-----------------------
-3-------------------------------2-----------------------------------








Guitara 1
--6-7-9,7-6-7---10-------9-75-4-5-7/8-7-5----------------
-------------------10-----------------------------10------------
-------------------10-------------------------------------------
-----------------0-----------------------------------------------
-----------------------------------------------------------------
------------------------------------------------------------------


Guitara 2
--------------------------------------------------------------------
---------------------3-----------------------2---------------------
---------------------2-----------------------2---------------------
------------------0--------------------------2---------------------
------------------------------------------0------------------------
--------------------------------------------------------------------


Guitara 1		             Hace falta que te diga
-0-12-9-10,9---------------------12------------------------------
----------------10,9------------------------------------------------
----------------------12,11-10-9----------------------------------
---------------------------------------------------------------------
---------------------------------------------------------------------
---------------------------------------------------------------------


Guitara 2                                               Guitara 1&2
                                                       Hace  falta que te diga
--------------------------------------------------------------------
-------------3------------------------0------------2--------------
-------------2------------------------1------------4-------2------
-------------4------------------------2------------2--------------
----------2-------------------------------------0------------------
-----------------------------------0-------------------------------



Guitara 1&2
Que me muero por tener algo contigo,
-----------4-------------------------------------------------3-----
-----------6----------------------------------0-------------3-----
-----------4----------------------------------2-------------3-----
-----------------------------------------------2---4-3-2---------
--------4----------------------------------------------------------
--------------------------------------------2----------------------



Guitara 1&2
          Es que no te has dado cuenta de lo mucho
----0----------------2-----------------------------2------0---
----2----------------2-----------------------------0-----------
----0----------------2-----------------------------0-----------
------------------0--------------------------------------------
-0----------------------------------------------4--------------
----------------------------------------------------------------


Guitara 1&2
que me cuesta ser tu amigo.
--------------------------------2--------0-------------------
-----3----------------------3---------3------------3-3------
-----6----------------------4------4------------4------------
-----4----------------------4-----------------4--------------
--------------------------2-----------------2-----------------
---------------------------------------------------------------


Guitara 1&2
Ya no puedo acercame a tu boca, sin desertela de una
--------------2---------------------3,1------------0-------------
--------------5---------------------3--------------2---------3---
--------------2---------------------2--------------4---------4---
----------0----------------------0---------------------------4---
-----------------------------------------------0------------------
-----------------------------------------------------------3------


Guitara 1&2
Manera loca, necesito controlar tu vida
----------------------------------------------------
-----------2-----------3-----------------3---------
-----------3-----------4-----------------1---------
-----------2-----------4-----------------3---------
--------------------2-----------------2------------
---------2------------------------------------------



Guitara 1&2
Saber quién te besa y quién te abriga     sin tener
------0-----------------------------------0-----------------
------0-----------------------------------0-----------------
------1-----------------------------------1----------------
------2-(3)-------------------------------2----------------
------2-----------------------------------2----------------
------0-----------------------------------0---------------


Guitara 1&2               guitara 1 :
Algo contigo
-------------------------------0-12-9-10,9--------------------12--
-----------------------0---------------------10,9------------------
--------------------2------------------------------12,11-10-9-----
-----------------2---------------------------------------------------
--------------0-----------------------------------------------------
---------------------------------------------------------------------

Durante el coro, la guitara 2 repite los arcordes de la estrofa 1

Guitara 1                                       ^ ^  ^   ^ ^ ^
12-10,12,10-9-----------------------9-7-9--7-6-7--5-5-
------------------12-9------------7-9-----------------------
-------------------------6-7-6-7----------------------------
--------------------------------------------------------------
-------------------------------------------------------------
-------------------------------------------------------------

Me falta el final del punteo, lo pondré cuando tenga un poco
más de tiempo. Para los acordes, son los mismos que la
estrofa 1 en todo el resto de la canción.

Cualquier error o duda, por favor mandar mail.

Fuente original: LaCuerda
Colaborador original: Perea [[email protected]]
Aviso: Este fichero es trabajo propio de su transcriptor y representa su interpretación personal de la canción. El material contenido en esta página es para exclusivo uso privado, por lo que se prohibe su reproducción o retransmisión, así como su uso para fines comerciales.

Califica esta canción


Comentarios en Facebook