Acordes y tablaturas para guitarra

Acordes y Tablaturas
Usuario: Password:

Buscar:
Acordes y Tablaturas >> Letra C >> Acordes de Coldplay >> clocks
Tablatura de clocks, Coldplay

Clocks

Coldplay






                             --Riff #1--

e|--11----------11---------11------9-----------9-----------9-----------------|
B|--12----------12---------12------10----------10----------10----------------|
G|-------11---------11---------11------11----------11----------11------------|
D|-----------9----------9------------------11----------11--------------------|
A|---------------------------------------------------------------------------|
E|---------------------------------------------------------------------------|

e|--9-----------9-----------9-------9---------9---------9--------------------|
B|--10----------10----------10------9---------9---------9--------------------|
G|------11----------11----------11-----9---------9--------11-----------------|
D|----------11----------11----------------11--------11-----------------------|
A|---------------------------------------------------------------------------|
E|---------------------------------------------------------------------------|

                               --Riff #2--

e|--9-----------9-----------9----------9-----------9-----------9-------------|
B|--10----------10----------10---------10----------10----------10------------|
G|------11----------11----------11---------11----------11----------11--------|
D|----------12----------12---------------------12----------12----------------|
A|---------------------------------------------------------------------------|
E|---------------------------------------------------------------------------|

e|--9----------9-----------9--------12---------12-----------12---------------|
B|--10---------10----------10-------9----------9------------9----------------|
G|--9----------9-----------9--------9----------9------------9----------------|
D|-----11----------11---------11--------9-----------9------------9-----------|
A|---------12----------12------------------11-----------11-------------------|
E|---------------------------------------------------------------------------|

e|--12--------12-----------12--------12----------12----------12--------------|
B|--9----------9-----------9---------9-----------9-----------9---------------|
G|--9----------9-----------9---------9-----------9-----------9---------------|
D|------9-----------9----------9----------9-----------9---------9------------|
A|---------11----------11--------------------11----------11------------------|
E|---------------------------------------------------------------------------|

                              --Riff #3--

e|--10----------10----------10--------10------------10--------10-------------|
B|--10----------10----------10--------10------------10--------10-------------|
G|------11----------11----------11----------11----------11--------11---------|
D|----------12----------12----------------------12----------12---------------|
A|---------------------------------------------------------------------------|
E|---------------------------------------------------------------------------|

e|--10----------10----------10--------10------------10--------10-------------|
B|--10----------10----------10--------10------------10--------10-------------|
G|------11----------11----------11----------11----------11--------11---------|
D|----------12----------12----------------------12----------12---------------|
A|---------------------------------------------------------------------------|
E|---------------------------------------------------------------------------|

Riff #1
Lights go out and I can't be saved, tides that I tried to swim against
Riff #1
Brought me down upon my knees, oh I beg I beg and plead -singing
Riff #1
Come out of the things unsaid, shoot an apple off my head - and a
Riff #1
trouble that can't be named, tigers waiting to be tamed - singing
 
Riff #1                                Riff #1
ye hooooooooh    aahh       ye hooooooooh    aahh 
 
Riff #1 (X2)
 
Riff #1
Confusion never stops, closing walls and ticking clocks - gonna
Riff #1
come back and take you home, I could not stop the tune now known - singing
Riff #1
Come out upon my seas, curse missed opportunities - am I
Riff #1
a part of the cure, or am I a part of the disease? - singing
 
Riff #1                                Riff #1
ye hooooooooh    aahh       ye hooooooooh    aahh 

 
Riff #1 (X2)
 
Riff #1                                Riff #1
ye hooooooooh    aahh       ye hooooooooh    aahh 

 
Riff #2
  and nothing else compares
Riff #2
  oh nothing else compares
Riff #2
  and nothing else compares
 
Riff #3
 
Riff #1 (X2)

Riff #1 (X2)
 
Riff #1                                Riff #1
ye hooooooooh    aahh       ye hooooooooh    aahh 

Riff #1
Home, home, where I wanted to go  
Riff #1
Home, home, where I wanted to go   
Riff #1
Home, home, where I wanted to go   
Riff #1
Home, home, where I wanted to go   
 
Riff #1 (X2)


Que te parecio? Calificalo con estrellas!!

Rating: 6.7/10 (301 votos)

Este fichero es trabajo propio de su transcriptor y representa su interpretación personal de la canción. El material contenido en esta página es para exclusivo uso privado, por lo que se prohibe su reproducción o retransmisión, así como su uso para fines comerciales.


Deja tus comentarios:
Letras de canciones | Musica Independiente