Acordes y tablaturas para guitarra

Acordes y Tablaturas
Usuario: Password:

Buscar:
Acordes y Tablaturas >> Letra F >> Acordes de Foo fighters >> Everlong (acústico)
Tablatura de Everlong (acústico), Foo fighters

Everlong (acústico)

Foo fighters






intro: y Riff 1 este ritmo, confunde poco más es un tempinho de la pregunta para obtener marcas él, oído algunas veces y se parece parececido bien de q así usted. Vc ai puede optar a hacer los acordes que usan los 3 dedos va su bien escogido? ^^

e|------------------------------------------|
B|------------------------------------------|
G|------------------------------------------|
D|-----11----11-11---11-----11----11-11-11--|
A|-----9-----9--9----9------9-----9--9--9---|
D|-0-0----0-------0-----0-0---0-----------0-|

e|-------------------------------------------|
B|-------------------------------------------|
G|-------------------------------------------|
D|-----11----11-11---11-----11----11-11-11---|
A|-----9-----9--9----9------9-----9--9--9----|
D|-9-9----9-------9----9-9------9----------0-|

e|-----------------------------------------------------------|
B|-----------------------------------------------------------|
G|-----------------------------------------------------------|
D|-----7--------7-----------11--------11--------11------11---|
A|-----5--------5-----------9---------9---------9-------9----|
D|-5-5---5-5-5-----5----9-9-----9-9-9----9-9-9----9-9-9----9-|



Pre-Refrão e Riff 2
e|-----------------------------------------------------|  (*) essa parte vai se repetir 3x
B|-----------------------------------------------------|      na ultima, so até o asteristico
G|--6-6-6/7-7-7/9-9-9/11-11-11-11-12-11(*)--------------|
D|--0-0-0/0-0-0/0-0-0/0--0--0--0--0--0----7-7-7-7-7-7--|
A|--4-4-4/5-5-5/7-7-7/9--9--9--9-10--9----7-7-7-7-7-7--|
D|----------------------------------------7-7-7-7-7-7--|


Refrão  (2x)
e|--------------------------------------------------------|
b|--------------------------------------------------------|
g|---------------------------7-7-7-7--7-7--7-7-7-7--7-7-7-|
d|--9-9--9-9-9--5-5-5-5--5-5-7-7-7-7--7-7--7-7-7-7--7-7-7-|
a|--9-9--9-9-9--5-5-5-5--5-5-5-5-5-5--5-5--5-5-5-5--5-5-5-|
D|--9-9--9-9-9--5-5-5-5--5-5------------------------------|


 (*)
e|-----------------------------------------------------------------|
B|-----------------------------------------------------------------|   (*) e por ai vai ate entrar
G|--------------------------7-7-7-7--7-7---------------------------|       o riff 1 denovo
D|-9-9--9-9-9--5-5-5-5--5-5-7-7-7-7--7-7--7--7-7--7-7---5-5-5-5-(*)-|
A|-9-9--9-9-9--5-5-5-5--5-5-5-5-5-5--5-5--7--7-7--7-7---5-5-5-5----|
D|-9-9--9-9-9--5-5-5-5--5-5---------------7--7-7--7-7---5-5-5-5----|


Riff 1
Hello, I've waited here for you, everlong 
Tonight, I throw myself into and out of the red, 
Out of her head she sang 

Come down and waste away with me, down with me 
Slow how, you wanted it to be, 
I'm over my head, out of her head she sang

Riff 2
And I wonder when I sing along with you 

Refrão
If everything could ever feel this real forever 
If anything could ever be this good again
(*)
The only thing I'll ever ask of you 
You've got to promise not to stop when I say when
She sang 

Riff 1
Breathe out, so I can breathe you in, hold you in 
And now, I know you've always been out of your head, 
Out of my head I sang
Riff 2
And I wonder when I sing along with you 

Refrão
If everything could ever feel this real forever 
If anything could ever be this good again
(*)
The only thing I'll ever ask of you
You've got to promise not to stop when I say when
She  sang

Riff 1 (1x)   

Riff 2(*) (4x)
And I wonder when I sing along with you

Refrão
if everything could ever feel this real forever                    
If anything could ever be this good again
(*)
The only thing I'll ever ask of you              
You've got to promise not to stop when I say when


e|------|
B|------|
G|------| Termina com essa nota... 
D|--11--|
A|--9---|
D|--0---|


Que te parecio? Calificalo con estrellas!!

Rating: 8.0/10 (179 votos)

Este fichero es trabajo propio de su transcriptor y representa su interpretación personal de la canción. El material contenido en esta página es para exclusivo uso privado, por lo que se prohibe su reproducción o retransmisión, así como su uso para fines comerciales.


Deja tus comentarios:
Letras de canciones | Musica Independiente