Enviado por: guero69
Agrandar Letra
Reducir Letra
Imprimir






Radiohead, Street Spirit (fade Out)

 Am  Asus4  Am  Asus2 :|     toca 4 tiempos
Am   Asus4  Am  Asus2
Rows of     houses
Am    Asus4   Am      Asus2
  all bearing down on me
Am  Asus4  Am   Asus2
I   can    feel their
Am     Asus4  Am       Asus2
  blue hands  touching me
Em        Em7       Em6    Em
All these things in all positions
Em        Em7         Em6     Em
All these things will one day take control

Am  Asus4  Am  Asus2
Am  Asus4  Am  Asus2

    C   Cadd9  C  Cmaj7  Em  Em7  Em6  Em
And fade                 out
  Am  Asus4  Am  Asus2   Am  Asus4  Am  Asus2
again.
    C   Cadd9  C  Cmaj7  Em  Em7  Em6  Em
And fade                 out...

Am   Asus4  Am  Asus2
This ma - chine will
Am     Asus4   Am Asus2
  will not communicate
      Am       Asus4   Am     Asus2
These thoughts and the strain I am
 Am  Asus4  Am Asus2
under
Em   Em7         Em6    Em
Be a world child form a circle
  Em      Em7  Em6  Em
before we all
   Am  Asus4  Am  Asus2   Am  Asus4  Am  Asus2
go under

    C  Cadd9  C  Cmaj7   Em  Em7  Em6 Em
And fade                 out
  Am  Asus4  Am  Asus2   Am  Asus4  Am  Asus2
again
    C  Cadd9  C  Cmaj7   Em  Em7  Em6 Em
And fade                 out
  Am   Asus4  Am  Asus2  Am    Asus4   Am Asus2
again

| C   Cadd9  C   Cmaj7 | Em  Em7    Em6  Em    |
| Am  Asus4  Am  Asus2 | Am  Asus4  Am   Asus2 |
| C   Cadd9  C   Cmaj7 | Em  Em7    Em6  Em    |

Am      Asus4  Am   Asus2
Cracked eggs   dead birds
Am       Asus4   Am        Asus2
  scream as they fight for life
Am  Asus4  Am   Asus2  Am    Asus4    Am    Asus2
I   can    feel death    can see it's beady eyes
Em        Em7      Em6   Em
All these things into fruition
Em        Em7          Em6     Em
All these things we'll one day swallow whole

Am  Asus4  Am  Asus2
Am  Asus4  Am  Asus2

    C  Cadd9  C  Cmaj7   Em  Em7  Em6  Em
And fade                 out
  Am  Asus4  Am  Asus2   Am  Asus4  Am  Asus2
again
    C  Cadd9  C  Cmaj7   Em  Em7  Em6  Em
And fade                 out
  Am   Asus4  Am  Asus2  Am    Asus4   Am  Asus2
again

|: C   Cadd9  C   Cmaj7 | Em  Em7    Em6  Em     |
|  Am  Asus4  Am  Asus2 | Am  Asus4  Am   Asus2 :|   2x


    C  Cadd9  C  Cmaj7   Em  Em7  Em6  Em
Imerse                  your soul
  Am   Asus4  Am  Asus2  Am    Asus4   Am  Asus2
in love...

C  Cadd9  C  Cmaj7   Em  Em7  Em6  Em
Imerse                  your soul
  Am   Asus4  Am  Asus2  Am    Asus4   Am  Asus2
in love...

riff 2

E-|---------0---------------0---------------0-------------------
B-|-----------------3---------------1---------------0-----------
G-|-----2-------2-------2-------2-------2-------2-------2-----2-
D-|---------------------------------------------------------2---
A-|-0-----------------------------------------------------------
E-|-------------------------------------------------------------


Em riff

E-|---------0---------------0---------------0------------------
B-|-----------------3---------------1---------------0-----------
G-|-----0-------0-------0-------0-------0-------0-------0-----0
D-|---------------------------------------------------------2---
A-|-------------------------------------------------------------
E-|-0-----------------------------------------------------------


C riff

E-|---------0---------------0---------------0-------------------
B-|-----------------3---------------1---------------0-----------
G-|-----0-------0-------0-------0-------0-------0-------0------0
D-|---------------------------------------------------------2---
A-|-3-----------------------------------------------------------
E-|-------------------------------------------------------------


C/G riff

E-|---------0---------------0---------------0-------------------
B-|-----------------3---------------1---------------0-----------
G-|-----0-------0-------0-------0-------0-------0-------0------0
D-|---------------------------------------------------------2---
A-|-------------------------------------------------------------
E-|-3-----------------------------------------------------------


E riff

E-|---------0---------------0---------------0-------------------
B-|-----------------3---------------1---------------0---------1-
G-|-----1-------1-------1-------1-------1-------1-------1-------
D-|---------------------------------------------------------2---
A-|-------------------------------------------------------------
E-|-0-----------------------------------------------------------

FIG. 1
    Am              Asus4           Am              Asus2                      
E-|---------0---------------0---------------0-------------------
B-|-----------------3---------------1---------------0-----------
G-|-----2-------2-------2-------2-------2-------2-------2------2
D-|---------------------------------------------------------2---
A-|-0-----------------------------------------------------------
E-|-------------------------------------------------------------
                                                                     

FIG. 2 

    Em              Em7             Em6             Em               
E-|---------0---------------0---------------0-------------------
B-|-----------------3---------------1---------------0-----------
G-|-----0-------0-------0-------0-------0-------0-------0------0
D-|---------------------------------------------------------2---
A-|-------------------------------------------------------------
E-|-0-----------------------------------------------------------


FIG. 3
                                                                     
    C               Cadd9           C               Cmaj7            
E-|---------0---------------0---------------0-------------------
B-|-----------------3---------------1---------------0-----------
G-|-----0-------0-------0-------0-------0-------0-------0------0
D-|---------------------------------------------------------2---
A-|-3-----------------------------------------------------------
E-|-------------------------------------------------------------
Aviso: Este fichero es trabajo propio de su transcriptor y representa su interpretación personal de la canción. El material contenido en esta página es para exclusivo uso privado, por lo que se prohibe su reproducción o retransmisión, así como su uso para fines comerciales.

Califica esta canción


Comentarios en Facebook