Acordes y tablaturas para guitarra

Acordes y Tablaturas
Usuario: Password:

Buscar:
Acordes y Tablaturas >> Letra r >> Acordes de red hot chili peppers >> Californication
Bajo de Californication, red hot chili peppers

Californication

Red hot chili peppers






Red hot chili peppers-californication
intro:
G:--------9-9--9-7h9h7--------7-7----
D:---7-7--------------10-10------10--
A:--------------------------8--------
E:-----------------------------------


G:--------9-9--9-7h9h7--------10-10--
D:---7-7--------------10-10--------7-
A:--------------------------8--------
E:-----------------------------------

verso
G:-----------------------------
D:-----------------------------
A:--3-3----------5-5-----------
E:------3-3-1-1----------------

coro
G:-------------------------------------------------
D:--7-7-7-7-7-7-7-7-7--9-10-----------------10-9---
A:--------------------------8-8-8-8-8-8-8-8-----10-
E:-------------------------------------------------


G:-----------------------------------------------------
D:--7-7-7-7-7-7-7-7-7--9-10-----------10/14 14-12-10-9-
A:--------------------------8-8-8-8-8------------------
E:-----------------------------------------------------


G:-------------------------------------------------
D:--7-7-7-7-7-7-7-7-7--9-10-----------------10-9---
A:--------------------------8-8-8-8-8-8-8-8-----10-
E:-------------------------------------------------


G:-----------------------------------------------------
D:--7-7-7-7-7-7-7-7-7--9-10-----------10/12-12-10-9----
A:--------------------------8-8-8-8-8--------------10--
E:-----------------------------------------------------


G:-------------------------------------------------
D:--7-7-7-7-7-7-7-7-7--9-10-----------------10-9---
A:--------------------------8-8-8-8-8-8-8-8-----10-
E:-------------------------------------------------


G:------------------------------------------------------
D:--7-7-7-7-7-7-7-7-7--9-10-----------------------------
A:--------------------------8-8-8-8-8/20-20-20-20-20-20-
E:------------------------------------------------------
coro
G:----------------------------
D:----------------------------
A:--3-3--------5-5------------
E:------3-3-5-5---------------


G:-----------------------------
D:-----------------------------
A:--3-3-3---2-3-5--------------
E:-------0-3-------------------

verso
G:-------------------------------------------------
D:--7-7-7-7-7-7-7-7-7--9-10-----------------10-9---
A:--------------------------8-8-8-8-8-8-8-8-----10-
E:-------------------------------------------------


G:-----------------------------------------------------
D:--7-7-7-7-7-7-7-7-7--9-10-----------10/12-12-10-9----
A:--------------------------8-8-8-8-8--------------10--
E:-----------------------------------------------------


G:-------------------------------------------------
D:--7-7-7-7-7-7-7-7-7--9-10-----------------10-9---
A:--------------------------8-8-8-8-8-8-8-8-----10-
E:-------------------------------------------------


G:-----------------------------------------------------
D:--7-7-7-7-7-7-7-7-7--9-10-----------12-12-10-9-------
A:--------------------------8-8-8-8-8-----------10-----
E:-----------------------------------------------------


G:-------------------------------------------------
D:--7-7-7-7-7-7-7-7-7--9-10-----------------10-9---
A:--------------------------8-8-8-8-8-8-8-8-----10-
E:-------------------------------------------------


G:------------------------------------------------------
D:--7-7-7-7-7-7-7-7-7--9-10-----------------------------
A:--------------------------8-8-8-8-8/20-20-20-20-20-20-
E:------------------------------------------------------
verso
G:----------------------------
D:----------------------------
A:--3-3--------5-5------------
E:------3-3-5-5---------------


G:--------------------------------------
D:--------------------------------------
A:--3-3-3---2-3-5-5-5-5--5-7-5--5-7-5---
E:-------0-3----------------------------

G:----------------------------
D:----------------------------
A:--3-3-------5h7h5-----------
E:------3-3-5-------5-5-5-----

G:-----------------------------
D:-----------------------------
A:--3-3-3---2-3-5--------------
E:-------0-3-------------------
solo
(x2)
G:--14---------------------------
D:-----18------------------------
A:--------16---------------------
E:-----------14/10-10-10-10------

G:----------------7-------------------
D:------9-------7-------7--------9----
A:-----9-----5--------7-------9-------
E:--0------7--------5------7----------

(x2)
G:--14---------------------------
D:-----18------------------------
A:--------16---------------------
E:-----------14/10-10-10-10------

G:----------------7-------------------
D:------9-------7-------7--------9----
A:-----9-----5--------7-------9-------
E:--0------7--------5------7----------

G:----------------7-------------------
D:------9-------7-------7-7-------7-7-
A:-----9-----5--------7---------7-----
E:--7------7--------5--------0--------




G:-------------------------------------------------
D:--7-7-7-7-7-7-7-7-7--9-10-----------------10-9---
A:--------------------------8-8-8-8-8-8-8-8-----10-
E:-------------------------------------------------


G:-----------------------------------------------------
D:--7-7-7-7-7-7-7-7-7--9-10-----------10/12-12-10-9----
A:--------------------------8-8-8-8-8--------------10--
E:-----------------------------------------------------


G:-------------------------------------------------
D:--7-7-7-7-7-7-7-7-7--9-10-----------------10-9---
A:--------------------------8-8-8-8-8-8-8-8-----10-
E:-------------------------------------------------


G:-----------------------------------------------------
D:--7-7-7-7-7-7-7-7-7--9-10----------------------------
A:--------------------------8-8-8-7-7-5-5-3-2-0--------
E:-----------------------------------------------------


G:-------------------------------------------------
D:--7-7-7-7-7-7-7-7-7--9-10-----------------10-9---
A:--------------------------8-8-8-8-8-8-8-8-----10-
E:-------------------------------------------------


G:------------------------------------------------------
D:--7-7-7-7-7-7-7-7-7--9-10-----------------------------
A:--------------------------8-8-8-8-8/20-20-20-20-20-20-
E:------------------------------------------------------



G:----------------------------
D:----------------------------
A:--3-3--------5-5------------
E:------3-3-5-5---------------


G:-------------------------------------------------
D:-------------------------------------------------
A:--3-3-3---2-3-5/17-17-17-17--15-17-15--15-17-15--
E:-------0-3---------------------------------------

G:----------------------------
D:----------------------------
A:--3-3-------5h7h5-----------
E:------3-3-5-------5-5-5-----

G:-----------------------------
D:-----------------------------
A:--3-3-3---2-3-5--------------
E:-------0-3-------------------

espero que les guste
saludos
leo


Que te parecio? Calificalo con estrellas!!

Rating: 8.3/10 (405 votos)

Este fichero es trabajo propio de su transcriptor y representa su interpretación personal de la canción. El material contenido en esta página es para exclusivo uso privado, por lo que se prohibe su reproducción o retransmisión, así como su uso para fines comerciales.


Deja tus comentarios:

Letras de red hot chili peppers
Letras de canciones | Musica Independiente