Acordes y tablaturas para guitarra

Acordes y Tablaturas
Usuario: Password:

Buscar:
Acordes y Tablaturas >> Letra r >> Acordes de red hot chili peppers >> Scar tissue
Tablatura de Scar tissue, red hot chili peppers

Scar tissue

Red hot chili peppers






  

  e--5--5--5-5---------------------------5---5---5-5--3---------
  B------------5--5h6--6--6--6--6h5---------------------5h6--5h8
  G-------------------------------------------------------------
  D-3--3--3----------------------------3---3---3------0---------
  A------------3--3h5----5--5-5-5h3---------------------3h5-----
  E----------
     F                         d
  Scar tissue that I wish you saw
     F                         d
  Sarcastic mister know it all
     F                         d
  Close your eyes and I'll kiss you 'cause
     F                         
  With the birds I'll share
     d
  This lonely view

     F                        
  With the birds I'll share
     d                        
  This lonely view
     F                       
  With the birds I'll share
     d                         
  This lonely view

 

  Push me up against the wall
  Young Kentucky girl in a push-up bra
  Fallin' all over myself
  To lick your heart and taste your health 'cause
  With the birds I'll share
  This lonely view...

  e-----7--7h5--5h3--3h5--5h7-8-----------------------------
  B---------------------------------------------------------
  G---------------------------------------------------------
  D---------------------------------------------------------
  A---------------------------------------------------------
  E---------------------------------------------------------

  Blood loss in a bathroom stall
  Southern girl with a scarlet drawl
  Wave good-bye to ma and pa 'cause
  With the birds I'll share
  With the birds I'll share
  This lonely view
  With the birds I'll share
  This lonely view

  Soft spoken with a broken jaw
  Step outside but not to brawl
  Autumn's sweet we call it fall
  I'll make it to the moon if I have to crawl and
  With the birds I'll share
  This lonely view...
  
  e-8h10-12-8h5-7h8--3--7h8--5-8h10-12-8h5-7h8-3-7h8-5-10-12-13
  B------------------------------------------------------------
  G------------------------------------------------------------
  D------------------------------------------------------------
  A------------------------------------------------------------
  E------------------------------------------------------------

  Scar tissue that I wish you saw
  Sarcastic mister know it all
  Close your eyes and I'll kiss you 'cause
  With the birds I'll share
  With the birds I'll share
  This lonely view
  With the birds I'll share
  This lonely view...


Que te parecio? Calificalo con estrellas!!

Rating: 6.2/10 (100 votos)

Este fichero es trabajo propio de su transcriptor y representa su interpretación personal de la canción. El material contenido en esta página es para exclusivo uso privado, por lo que se prohibe su reproducción o retransmisión, así como su uso para fines comerciales.


Deja tus comentarios:

Letras de red hot chili peppers
Letras de canciones | Musica Independiente