Acordes y tablaturas para guitarra

Acordes y Tablaturas
Usuario: Password:

Buscar:
Acordes y Tablaturas >> Letra O >> Acordes de Ozzy Osbourne >> crazy train
Tablatura de crazy train, Ozzy Osbourne

Crazy train

Ozzy Osbourne






Standard tuning


e|-----------------------------------------------------------
B|-----------------------------------------------------------
G|-----------------------------------------------------------  (3x)
D|-----------------------------------------------------------
A|--------4-----5-----4-----2-----------2--------------------
E|---2--2----2-----2-----2-----5--4--5-----5--4--0-----------


e|----------------------------------------
B|----------------------------------------
G|-----------------------7---9------------
D|-----------------------5---9------------
A|--------4-----5--------5---7------------
E|---2--2----2-----2----------------------


e|------------------------------------------------------------------------------------------------
B|---------------5--------------5--------------3--------------2-------2--------------------------- PM=
Palm muting
G|---------------6--------------4--------------2--------------2-------2---------------------------
D|---------------7--------------6--------------4--------------2-------2---------------------------- b=
Bend
A|---0--0--0--0-----0--0--0--0-----0--0--0--0-----0--0--0--0--0-------0----------------------------
E|----------------------------------------------------------------3b-----------------------------
     PM________|    PM_______|     PM________|    PM_______|

e|------------------------------------------------------------------------------------------------
B|---------------5--------------5--------------3--------------2----------------------------------  h=
Hammer on
G|---------------6--------------4--------------2--------------2----0h2p0-------------------------
D|---------------7--------------6--------------4--------------2----------4p2p0-------------------  p= Pull
off
A|---0--0--0--0-----0--0--0--0-----0--0--0--0-----0--0--0--0--0----------------4p2p0-------------
E|---------------------------------------------------------------------------------------------
     PM________|    PM_______|     PM________|    PM_______|

e|------------------------------------------------------------------------------------------------
B|---------------5--------------5--------------3--------------2-------2--------------------------- 
G|---------------6--------------4--------------2--------------2-------2---------------------------  (8x)
D|---------------7--------------6--------------4--------------2-------2---------------------------- 
A|---0--0--0--0-----0--0--0--0-----0--0--0--0-----0--0--0--0--0-------0----------------------------
E|----------------------------------------------------------------3b-----------------------------
     PM________|    PM_______|     PM________|    PM_______|

e|-----------------------------------------------------------------------------------------------
B|----------------3---------------------------3----------------------------------------------------  
G|----------------2---------------------------2----------------2------------------------------------  ^=
Harmonics
D|----------------0---------5^----------------0----------------2------------2----------------------
A|---4--4--4--4----------5^------4--4--4--4--------5--5--4--2--0------------2----------------------
E|---2--0--2--2-------5^---------2--0--2--2------------------------4--2--0--0------------------------


e|-------------------------------------------------------------------------------------------------------
B|-------2--5--2-----2-----------------------------------------------------------------------------------
G|---4b-----------5-----5--4--5--4--2--4--2-----2--4--2-----2-------------------------2----------------- 

D|-------------------------------------------4-----------4-----4--2--4--2----2--------2--------2--------- 

A|-------------------------------------------------------------------------4----4--2--0--------2----------
     
E|---------------------------------------------------------------------------------------4--2--0--------


e|--------------------------------------------------------------------------------------------------------
B|------------------------------------------------------------------------------------------------------
G|---------------------------------2--------------------------------------------------------2------------ 
~= Hand
D|---------------------------------2--------2--------------------------------7--9-----------2----------   
Vibrato
A|----------4--4--4-----4^---------0--------2----------4--4--4-----4^--------5--7-----------0----------------
E|---2--4~--2--0--2--2^-----2--4------4--2--0---2--4~--2--0--2--2^-----0--2--------0--2--4------------------



e|------------------------------------------------------------------------------------------------
B|---------------5--------------5--------------3--------------2-------2--------------------------- 
G|---------------6--------------4--------------2--------------2-------2---------------------------
D|---------------7--------------6--------------4--------------2-------2---------------------------- 
A|---0--0--0--0-----0--0--0--0-----0--0--0--0-----0--0--0--0--0-------0----------------------------
E|----------------------------------------------------------------3b-----------------------------
     PM________|    PM_______|     PM________|    PM_______|

e|------------------------------------------------------------------------------------------------
B|---------------5--------------5--------------3--------------2----------------------------------  
G|---------------6--------------4--------------2--------------2----0h2p0-------------------------
D|---------------7--------------6--------------4--------------2----------4p2p0-------------------  
A|---0--0--0--0-----0--0--0--0-----0--0--0--0-----0--0--0--0--0----------------4p2p0-------------
E|---------------------------------------------------------------------------------------------
     PM________|    PM_______|     PM________|    PM_______|

e|------------------------------------------------------------------------------------------------
B|---------------5--------------5--------------3--------------2-------2--------------------------- 
G|---------------6--------------4--------------2--------------2-------2---------------------------  (8x)
D|---------------7--------------6--------------4--------------2-------2---------------------------- 
A|---0--0--0--0-----0--0--0--0-----0--0--0--0-----0--0--0--0--0-------0----------------------------
E|----------------------------------------------------------------3b-----------------------------
     PM________|    PM_______|     PM________|    PM_______|

e|-----------------------------------------------------------------------------------------------
B|----------------3---------------------------3----------------------------------------------------  
G|----------------2---------------------------2----------------2------------------------------------  
D|----------------0---------5^----------------0----------------2------------2----------------------
A|---4--4--4--4----------5^------4--4--4--4--------5--5--4--2--0------------2----------------------
E|---2--0--2--2-------5^---------2--0--2--2------------------------4--2--0--0------------------------


e|-8p5-----9p6-----10p7-----11p8-----12p9-----13p10------14p11------15p12------16p13------17p14------------------
B|------5-------6--------7--------8--------9---------10---------11---------12---------13---------14--------------
G|---------------------------------------------------------------------------------------------------2-----------
D|---------------------------------------------------------------------------------------------------2--------2--
A|---------------------------------------------------------------------------------------------------0--------2---
E|------------------------------------------------------------------------------------------------------4--2--0---


e|--------------------------------------------------------------------------------------------------------
B|------------------------------------------------------------------------------------------------------
G|---------------------------------2---------------------------------------------------------- ----------

D|---------------------------------2--------2--------------------------------7--9-------------------------
A|----------4--4--4-----4^---------0--------2----------4--4--4-----4^--------5--7---------------------------
E|---2--4~--2--0--2--2^-----2--4------4--2--0---2--4~--2--0--2--2^-----0--2------------------------------


e|-----------------------------------------------------------------------------------------------------
B|-----------------------------------------------------------------------------------------------------
G|----------2--2-----------------------------------------------------------------2--2------------------ 
/= Slide
D|----------2--2--------2--2-----------------7--7---------9--9---------11--11---2--2---------2--------    
    A|--4--43--0--0--0--0--2--2--------4--43---5--5---------7--7---------9---9----0--0--0--0---2--------
E|--2--21--------------0--0--0--0--2--21---------0--0----------0--0-------------------------0--0--0--
                  PM__|       PM__|               PM__|          PM__|                 PM__|     PM__|

e|--------------------------------
B|--------------------------------
G|--------------------------------
D|---11--11---7---9--------------
A|---9---9----5---7--------------
E|--------------------------------


  SOLO
    T      T      (4x)||  T      T      (4x) ||
e|--------------------||---------------------||-------(12x)-------------------------------------------------
B|--14p10--14p10p7----||--15p10--15p10p7-----||--12p9---------------10-----------------------------------
G|--------------------||---------------------||----------------9b-------9b---------------------------------
D|--------------------||---------------------||--------------------------------------------------------
A|--------------------||---------------------||--------------------------------------------------------
E|--------------------||---------------------||--------------------------------------------------------
                      ||                     || 

e|--/17--16--14--------14--16--17--17b---14--17--14------14------------------------------------------------------
B|---------------17b---------------------------------17------17--14--17--14------14-------------------17---------
G|---------------------------------------------------------------------------17------17--16--14--16b------16b--14~
D|----------------------------------------------------------------------------------------------------------------
A|---------------------------------------------------------------------------------------------------------------
E|---------------------------------------------------------------------------------------------------------------

                   TR                   TR                           TR
e|----------------14h17--18p15--19p16--21p17---20p17--20p17--19p16--17p14--------17-----------------
B|---------14h17------------------------------------------------------------17b------17b--17--14------
G|--14h16---------------------------------------------------------------------------------------------- 
TR= Trill
D|----------------------------------------------------------------------------------------------------
A|---------------------------------------------------------------------------------------------------
E|---------------------------------------------------------------------------------------------------

                                                                          TR
e|-----------------------------------------------------------------------------------------------
B|-----------------------------------------------------------------------------------------------
G|--16--14--------------14--------------14--------------14--------------------------------------
D|----------16--14--16------16--14--16------16--14--16------16--14--16---14h16--16b--------------
A|-----------------------------------------------------------------------------------------------
E|-----------------------------------------------------------------------------------------------

                                           TR
e|----------------------------------------14h17----19b--19br-----                                         
       B|---------------------------------14h17--------------------------
G|--------------------------14h16----------------------------------
D|-------------------14h16----------------------------------------
A|---------12h14/16------------------------------------------------
E|--12h14---------------------------------------------------------


e|-----------------------------------------------------------
B|-----------------------------------------------------------
G|-----------------------------------------------------------  (3x)
D|-----------------------------------------------------------
A|--------4-----5-----4-----2-----------2--------------------
E|---2--2----2-----2-----2-----5--4--5-----5--4--0-----------


e|----------------------------------------
B|----------------------------------------
G|-----------------------7---9------------
D|-----------------------5---9------------
A|--------4-----5--------5---7------------
E|---2--2----2-----2----------------------


e|------------------------------------------------------------------------------------------------
B|---------------5--------------5--------------3--------------2-------2---------------------------        
      G|---------------6--------------4--------------2--------------2-------2---------------------------
D|---------------7--------------6--------------4--------------2-------2---------------------------- 
A|---0--0--0--0-----0--0--0--0-----0--0--0--0-----0--0--0--0--0-------0----------------------------
E|----------------------------------------------------------------3b-----------------------------
     PM________|    PM_______|     PM________|    PM_______|

e|------------------------------------------------------------------------------------------------
B|---------------5--------------5--------------3--------------2----------------------------------  
G|---------------6--------------4--------------2--------------2----0h2p0-------------------------
D|---------------7--------------6--------------4--------------2----------4p2p0-------------------  
A|---0--0--0--0-----0--0--0--0-----0--0--0--0-----0--0--0--0--0----------------4p2p0-------------
E|---------------------------------------------------------------------------------------------
     PM________|    PM_______|     PM________|    PM_______|

e|------------------------------------------------------------------------------------------------
B|---------------5--------------5--------------3--------------2-------2--------------------------- 
G|---------------6--------------4--------------2--------------2-------2---------------------------  (8x)
D|---------------7--------------6--------------4--------------2-------2---------------------------- 
A|---0--0--0--0-----0--0--0--0-----0--0--0--0-----0--0--0--0--0-------0----------------------------
E|----------------------------------------------------------------3b-----------------------------
     PM________|    PM_______|     PM________|    PM_______|

e|-----------------------------------------------------------------------------------------------
B|----------------3---------------------------3----------------------------------------------------  
G|----------------2---------------------------2----------------2------------------------------------  
D|----------------0---------5^----------------0----------------2------------2----------------------
A|---4--4--4--4----------5^------4--4--4--4--------5--5--4--2--0------------2----------------------
E|---2--0--2--2-------5^---------2--0--2--2------------------------4--2--0--0------------------------

         TR          TR             TR
e|------9h12--------12h15----------15h18----------------------
B|--/9-------12/15---------15/18-----------------------------
G|--------------------------------------------2--------------
D|--------------------------------------------2---------2------
A|--------------------------------------------0---------2-----
E|------------------------------------------------4--2--0----


e|--------------------------------------------------------------------------------------------------------
B|------------------------------------------------------------------------------------------------------
G|---------------------------------2---------------------------------------------------------- ----------

D|---------------------------------2--------2--------------------------------7--9-------------------------
A|----------4--4--4-----4^---------0--------2----------4--4--4-----4^--------5--7---------------------------
E|---2--4~--2--0--2--2^-----2--4------4--2--0---2--4~--2--0--2--2^-----0--2------------------------------


e|-----------------------------------------------------------------------------------------------------
B|-----------------------------------------------------------------------------------------------------
G|----------2--2-----------------------------------------------------------------2--2------------------ 
/= Slide
D|----------2--2--------2--2-----------------7--7---------9--9---------11--11---2--2---------2--------    
    A|--4--43--0--0--0--0--2--2--------4--43---5--5---------7--7---------9---9----0--0--0--0---2--------
E|--2--21--------------0--0--0--0--2--21---------0--0----------0--0-------------------------0--0--0--
                  PM__|       PM__|               PM__|          PM__|                 PM__|     PM__|

e|--------------------------------
B|--------------------------------
G|--------------------------------
D|---11--11---7---9--------------
A|---9---9----5---7--------------
E|--------------------------------


Que te parecio? Calificalo con estrellas!!

Rating: 9.0/10 (834 votos)

Este fichero es trabajo propio de su transcriptor y representa su interpretación personal de la canción. El material contenido en esta página es para exclusivo uso privado, por lo que se prohibe su reproducción o retransmisión, así como su uso para fines comerciales.


Deja tus comentarios:
Letras de canciones | Musica Independiente