Acordes y tablaturas para guitarra

Acordes y Tablaturas
Usuario: Password:

Buscar:
Acordes y Tablaturas >> Letra r >> Acordes de red hot chili peppers >> Otherside
Tablatura de Otherside, red hot chili peppers

Otherside

Red hot chili peppers






Intro -

E---------------------------------------------------
B---------------------------------------------------
G---------------------------------------------------
D------------7-7-9-7--------------------------------
A------7-7-7---------10-7-5-5-5---------------------
e---------------------------------------------------
____________________________________________________

Chorus 1 -

E---------------------------------------------------
B---------------------------------------------------
G---------------------------------------------------
D------------7-7-9-7--------------------------------
A------7-7-7---------10-7-7-7-7-5-5-5---------------
e---------------------------------------------------

E---------------------------------------------------
B---------------------------------------------------
G---------------------------------------------------
D------------7-7-9-7--------------------------------
A------7-7-7---------10-7-7-7-7-5-5-5---------------
e---------------------------------------------------

E---------------------------------------------------
B---------------------------------------------------
G---------------------------------------------------
D------------7-7-7/14-14-14-14/9-9-9-9--------------
A------7-7-7----------------------------------------
e---------------------------------------------------
____________________________________________________

Verse 1 -

E-----------8-------------------------15------------
B---------------------------------------------------
G---------------------------------------------------
D---------------------------------------------------
A---------------------------------------------------
e----5-5-5-------5-5-5/12-12-12-12-------12-12/5----


E-----------8-------------------------15------------
B---------------------------------------------------
G---------------------------------------------------
D---------------------------------------------------
A---------------------------------------------------
e----5-5-5-------5-5-5/12-12-12-12-------12-12/5----

E-----------8-------------------------15------------
B---------------------------------------------------
G---------------------------------------------------
D---------------------------------------------------
A---------------------------------------------------
e----5-5-5-------5-5-5/12-12-12-12-------12-12/5----
____________________________________________________

End-of-Verse Bar Chords (to be played at all ends of verses) -

      G-majA-min
E-------3-----------------5---------------------------
B-------3-----------------5---------------------------
G-------4-----------------5---------------------------(please note - the bar
D-------5-----------------7---------------------------chords are harder, but
A-------5-----------------7---------------------------they sound much better,
e-------3-----------------5---------------------------though the normal chords
are easier for beginners)
End-of-Verse Straight Easy Chords (Version 2) -

      G-majA-min
E-------3-----------------0---------------------------
B-------0-----------------1---------------------------
G-------0-----------------2---------------------------
D-------0-----------------2---------------------------
A-------2-----------------0---------------------------
e-------3-----------------0---------------------------
______________________________________________________

Verse 2 (same as Verse 1, but I've just put it in so that
it is easier to read as a whole song -

E-----------8-------------------------15------------
B---------------------------------------------------
G---------------------------------------------------
D---------------------------------------------------
A---------------------------------------------------
e----5-5-5-------5-5-5/12-12-12-12-------12-12/5----


E-----------8-------------------------15------------
B---------------------------------------------------
G---------------------------------------------------
D---------------------------------------------------
A---------------------------------------------------
e----5-5-5-------5-5-5/12-12-12-12-------12-12/5----

E-----------8-------------------------15------------
B---------------------------------------------------
G---------------------------------------------------
D---------------------------------------------------
A---------------------------------------------------
e----5-5-5-------5-5-5/12-12-12-12-------12-12/5----

(Replay end-of-verse chords to the rhythm).
____________________________________________________

Chorus 2 -

E---------------------------------------------------
B---------------------------------------------------
G---------------------------------------------------
D------------7-7-9-7--------------------------------
A------7-7-7---------10-7-7-7-7-5-5-5---------------
e---------------------------------------------------

E---------------------------------------------------
B---------------------------------------------------
G---------------------------------------------------
D------------7-7-9-7--------------------------------
A------7-7-7---------10-7-7-7-7-5-5-5---------------
e---------------------------------------------------

E---------------------------------------------------
B---------------------------------------------------
G------------------------------18-18-18-------------
D------------7-7-7/14-14-14-14----------------------
A------7-7-7----------------------------------------
e---------------------------------------------------
____________________________________________________

Verse 3 -

E-----------8-------------------------15------------
B---------------------------------------------------
G---------------------------------------------------
D---------------------------------------------------
A---------------------------------------------------
e----5-5-5-------5-5-5/12-12-12-12-------12-12/5----


E-----------8-------------------------15------------
B---------------------------------------------------
G---------------------------------------------------
D---------------------------------------------------
A---------------------------------------------------
e----5-5-5-------5-5-5/12-12-12-12-------12-12/5----

E-----------8-------------------------15------------
B---------------------------------------------------
G---------------------------------------------------
D---------------------------------------------------
A---------------------------------------------------
e----5-5-5-------5-5-5/12-12-12-12-------12-12/5----

(Replay end-of-verse chords once, due to short drum solo).
____________________________________________________

Verse 4 -

E-----------8-------------------------15------------
B---------------------------------------------------
G---------------------------------------------------
D---------------------------------------------------
A---------------------------------------------------
e----5-5-5-------5-5-5/12-12-12-12-------12-12/5----


E-----------8-------------------------15------------
B---------------------------------------------------
G---------------------------------------------------
D---------------------------------------------------
A---------------------------------------------------
e----5-5-5-------5-5-5/12-12-12-12-------12-12/5----

E-----------8-------------------------15------------
B---------------------------------------------------
G---------------------------------------------------
D---------------------------------------------------
A---------------------------------------------------
e----5-5-5-------5-5-5/12-12-12-12-------12-12/5----

(Replay end-of-verse chords to the rhythm).
____________________________________________________

Chorus 3 -

E---------------------------------------------------
B---------------------------------------------------
G---------------------------------------------------
D------------7-7-9-7--------------------------------
A------7-7-7---------10-7-7-7-7-5-5-5---------------
e---------------------------------------------------

E---------------------------------------------------
B---------------------------------------------------
G---------------------------------------------------
D------------7-7-9-7--------------------------------
A------7-7-7---------10-7-7-7-7-5-5-5---------------
e---------------------------------------------------

E---------------------------------------------------
B---------------------------------------------------
G---------------------------------------------------
D------------7-7-7/14-14-14-14/9-9-9-9--------------
A------7-7-7----------------------------------------
e---------------------------------------------------
____________________________________________________

Bridge and Solo -

E------0--0--0------12-12-12----0--0--0-------------
B------12-12-12-----0--0--0-----12-12-12------------
G---------------------------------------------------
D---------------------------------------------------
A---------------------------------------------------
e---------------------------------------------------

E------0--0--0------12-12-12----0--0--0-------------
B------12-12-12-----0--0--0-----12-12-12------------
G---------------------------------------------------
D---------------------------------------------------
A---------------------------------------------------
e---------------------------------------------------

E------0--0--0------12-12-12------------------------
B------12-12-12-----0--0--0-----12/10-10-10/17-17---
G---------------------------------------------------
D---------------------------------------------------
A---------------------------------------------------
e---------------------------------------------------

E---------------------------------------------------
B-17-17-19-17-17-17-17-17-17-19-17-17-19-17-17-19-17
G---------------------------------------------------
D---------------------------------------------------
A---------------------------------------------------
e---------------------------------------------------
____________________________________________________

Chorus 4 -

E---------------------------------------------------
B---------------------------------------------------
G---------------------------------------------------
D------------7-7-9-7--------------------------------
A------7-7-7---------10-7-7-7-7-5-5-5-5-------------
e---------------------------------------------------

E---------------------------------------------------
B---------------------------------------------------
G---------------------------------------------------
D------------7-7-9-7--------------------------------
A------7-7-7---------10-7-7-7-7-5-5-5-5-------------
e---------------------------------------------------

E---------------------------------------------------
B---------------------------------------------------
G---------------------------------------------------
D------------7-7-7/14-14-14-14/9-9-9-9--------------
A------7-7-7----------------------------------------
e---------------------------------------------------

E---------------------------------------------------
B---------------------------------------------------
G---------------------------------------------------
D------------7-7-9-7--------------------------------
A------7-7-7---------10-7-7-7-7-5-5-5-5-------------
e---------------------------------------------------

E---------------------------------------------------
B---------------------------------------------------
G---------------------------------------------------
D------------7-7-7/14-14-14-14/9-9-9-9--------------
A------7-7-7----------------------------------------
e---------------------------------------------------

(End of any chord on A-minor)
____________________________________________________



Notes: Instead of playing the normal melody in Chorus 3+4,
you can just play the bar chords (and they also sound better)

They are: A-minor, F, C, G. --->> It's easy to figure the rhythm.

Bar Chords:
A-minor: 577555
F: 133211
C: 8 10 10 9 8 8
G: 355433

(Most left number is low E... and so on.)


Que te parecio? Calificalo con estrellas!!

Rating: 7.8/10 (111 votos)

Este fichero es trabajo propio de su transcriptor y representa su interpretación personal de la canción. El material contenido en esta página es para exclusivo uso privado, por lo que se prohibe su reproducción o retransmisión, así como su uso para fines comerciales.


Deja tus comentarios:

Letras de red hot chili peppers
Letras de canciones | Musica Independiente