Acordes y tablaturas para guitarra

Acordes y Tablaturas
Usuario: Password:

Buscar:
Acordes y Tablaturas >> Letra I >> Acordes de Iron maiden >> transylvania
Tablatura de transylvania, Iron maiden

Transylvania

Iron maiden






Transylvania
Tabbed by: Intro - Raine M. Ekman
Main Theme - Raine M. Ekman
Tight Part - Ryan Voss
Tight Part 2 - Ryan Voss
Solo 1 - Rudy Guzman
Solo 2 - Rudy Guzman
Top Iron maiden Logo - Ryan Voss
Intro

D C F 
Play 4 times
E||----------------------|--------------------||
B||----------------------|--------------------||
G||*---------------------|-------------------*||
D||*0-0-0-0-0--0-0-0-0-0-|-0-0-0-0-0-----3---*||
A||----------------------|-----------3--------||
E||----------------------|--------------------||


E D G C D
Play 4 times
E||-----------------------|----------------------|| (end it ------------|
B||-----------------------|----------------------|| like ------------|
G||*----------------------|-----------------0---*|| this ------------|
D||*-2-2-2-2-2--2-2-2-2-2-|-2-2-2-2-2---0-------*|| the -------0----|
A||-----------------------|----------------------|| last ---3--------|
E||-----------------------|----------------------|| time) ------------|


Main Theme

Em D Em 
Play twice 
E||----------------------------|-----------------------------||--------------|
B||----------------------------|-----------------------------||--------------|
G||*----------0-------------0--|------------------------0---*||--------------|
D||*-2-2-2--2---4--2-2-2--2---4|-0-0-0--0---0--2-2-2--2---4-*||-2-2-2--2-0---|
A||----------------------------|----------2------------------||------------4-|
E||----------------------------|-----------------------------||--------------|


Bm A Bm 
Play twice 
E||----------------------------|------------------------------||--------------|
B||----------------------------|------------------------------||--------------|
G||*---------------------------|-----------------------------*||----------0---|
D||*---------0-------------0---|------------------------0----*||------------4-|
A||-2-2-2--2---4--2-2-2--2---4-|-0-0-0--0---0--2-2-2--2---4---||-2-2-2--2-----|
E||----------------------------|----------2-------------------||--------------|

Tight Part
E5 D5 C5 D5 E5 C5
Play 4 times
E||--7--------5----------------|------------------------------||
B||--10b(12)--8b(10)--8-8-8-8-|--8p7-5--10p8-7--8p7-5--5----||
G||*---------------------------|-----------------------------*||
D||*---------------------------|-----------------------------*||
A||----------------------------|------------------------------||
E||----------------------------|------------------------------||



Main Theme

Tight part

Intro



Tight Part 2
Play 8 times
E||-Gtr. II-7--7-7-7--7p5--3-5-||
B||----------------------------||
G||*Gtr.-I--4--4-4-4--4p2--0-2*||
D||*--------------------------*||
A||----------------------------||
E||----------------------------||


Solo 1 w/Gtr.I Play tight part 2
Gtr. II

e:-14-17p16p14-------14-17p16p14------14-17p16p14-----14b-14b-------------|-14-17p16p14-|
B:--------------17b---------------17b--------------17----------17p14-17~~-|-------------|
G:------------------------------------------------------------------------|-------------|
D:------------------------------------------------------------------------|-------------|
A:------------------------------------------------------------------------|-------------|
E:------------------------------------------------------------------------|-------------|

e:-17b--17b-17b-17b--17b--17b--12b--12b~~~--12b-12b~~~--14b--14b~~~--14b-14b~~~-|
B:-----------------------------15b--15b~~~--15b-15b~~~--17b--17b~~~--17b-17b~~~-|
G:------------------------------------------------------------------------------|
D:------------------------------------------------------------------------------|
A:------------------------------------------------------------------------------|
E:------------------------------------------------------------------------------|

e:-15b--15b~~~--17b-17b~~~--19b--19b-19b~~----19b-19b~~~--12h15p12h15p12-------------|
B:-18b--18b~~~--20b-20b~~~--22b--22b-22b~~----22b-22b~~~-----------------15p12h15p12-|
G:-----------------------------------------------------------------------------------|
D:-----------------------------------------------------------------------------------|
A:-----------------------------------------------------------------------------------|
E:-----------------------------------------------------------------------------------|

e:------------------------12h15p12h15p12----------------------------------------|
B:---------------------------------------15p12h15p12----------------------------|
G:-14p12h14p12h14p12---------------------------------14p12h14p12h14p12----------|
D:-------------------14------------------------------------------------14-------|
A:------------------------------------------------------------------------------|
E:------------------------------------------------------------------------------|

e:-12h15p12h15p12------------------12h15p12h15p12-----------------12-14-15-17-15-17-17B-|
B:----------------15p12h15p12h1p12----------------15p12h15p12h15------------------------|
G:--------------------------------------------------------------------------------------|
D:--------------------------------------------------------------------------------------|
A:--------------------------------------------------------------------------------------|
E:--------------------------------------------------------------------------------------|

e:-17Bp15-------|
B:--------17~~~-|
G:--------------|
D:--------------|
A:--------------|
E:--------------|



Tight Part 2



solo 2

e:------------------------------------------------------------------------14B--12-14-15-|
B:--15B--12-15B-----15-12h15p12----15-12h15p12----12-15-15-15--15B-----12---------------|
G:--14B-------------------------14-------------14-------------------14------------------|
D:--------------------------------------------------------------------------------------|
A:--------------------------------------------------------------------------------------|
E:--------------------------------------------------------------------------------------|

repeat repeat repeat repeat
:-14h15p14-12h14p12-|---12-15-12h14p12-|-12-15-17B-17B-|-15h17p15-|-14h15p14-|----------|
:-------------------|15----------------|---------------|----------|----------|-15h17p15-|
:-------------------|------------------|---------------|----------|----------|----------|
:-------------------|------------------|---------------|----------|----------|----------|
:-------------------|------------------|---------------|----------|----------|----------|
:-------------------|------------------|---------------|----------|----------|----------|


repeat repeat repeat repeat repeat
e:----------|----------|----------|-------|-12h15p12h15p12----|-10h13p10h13p10----|
B:-14h15p14-|-12h15p12-|----------|--15B--|----------------15-|----------------13-|
G:----------|----------|-12h14p12-|--14B--|-------------------|-------------------|
D:----------|----------|----------|-------|-------------------|-------------------|
A:----------|----------|----------|-------|-------------------|-------------------|
E:----------|----------|----------|-------|-------------------|-------------------|

repeat repeat
e:-8h11p8h11p8----|-10h13p10h13p10----|-12h15p12h15-12h14p12h14p12----------------------|
B:-------------11-|----------------13-|----------------------------15p12h15p12----------|
G:----------------|-------------------|---------------------------------------14p12h14p12
D:----------------|-------------------|-------------------------------------------------|
A:----------------|-------------------|-------------------------------------------------|
E:----------------|-------------------|-------------------------------------------------|


Que te parecio? Calificalo con estrellas!!

Rating: 7.3/10 (133 votos)

Este fichero es trabajo propio de su transcriptor y representa su interpretación personal de la canción. El material contenido en esta página es para exclusivo uso privado, por lo que se prohibe su reproducción o retransmisión, así como su uso para fines comerciales.


Comentario de tya 183
fuente:guitabs.net
Deja tus comentarios:
Letras de canciones | Musica Independiente