Enviado por: ger
Agrandar Letra
Reducir Letra
Imprimir

Acordes:
½ tono
| +0 |
½ tono
||
Volver

Otras Versiones de historia de un amor:

pedro infante, historia de un amor

 
 
 E-----3--2--0--2--3--0--5--7--8--7--5--3--2/-5--3--2--3--5--2--7/--5--7-5--3--5--7
  esto en la misma cuerda el requinto, la primera...

                    Am           B7
Ya no estás más a mi lado corazón 
                 Em
en el alma sólo tengo soledad
                  D  
y si ya no puedo verte
                         C
porque Dios lo hizo quererte
                 B7       Em 
para hacerme sufrir más.


                     Am               B7 
Siempre fuiste la razón de mi existir
               Em
adorarte para mí fue religión
                      D
en tus besos yo encontraba
                     C
el calor que me brindaba
     B7          Em
el amor de tu pasión.


                       Am
Es la historia de un amor
                   B7
como no hay otro igual
                   Em
que me hizo comprender

todo el bien todo el mal
                     D
que le dio luz a mi vida
                C   
apagándola después
                      B7 
ay..que noche tan obscura

C                     B7 
 todo se me ha de volver.

Em

                     Am           B7
Ya no estás más a mi lado corazón 
                 Em
en el alma sólo tengo soledad
                  D  
y si ya no puedo verte
                         C
porque Dios lo hizo quererte
                 B7                Em 
para hacerme sufrir más.
  

   E|-------------------------------------------------------
   A|-------------------------------------------------------
   D|--------------------------------------------------9-7-5
   G|-----9-----9---------------9-8-----8-----8------9------
   B|-8-7---7-8---8/10-10-8-7-7-----7-5---5-7--8-8-7--------
   e|-------------------------------------------------------


   E|-------------------------------------------------------
   A|-------------------------------------------------------
   D|-------------------------------------------------------
   G|-5-----------------3------------------2-----------5----
   B|---3-4-4-4-3-4/6-3---1-2-2-2-1-2/4-0----0-1^0-4-3------
   e|-------------------------------------------------------

                    Am
Es la historia de un amor
                   B7
como no hay otro igual
                   Em
que me hizo comprender

todo el bien todo el mal
                     D
que le dio luz a mi vida
                C   
apagándola después
                      B7 
ay..que noche tan obscura




C                     B7 
 todo se me ha de volver.


 
Em

                     Am           B7
Ya no estás más a mi lado corazón 
                 Em
en el alma sólo tengo soledad
                  D  
y si ya no puedo verte
                         C
porque Dios lo hizo quererte
                 B7                Em 
para hacerme sufrir más.
  
 
Aviso: Este fichero es trabajo propio de su transcriptor y representa su interpretación personal de la canción. El material contenido en esta página es para exclusivo uso privado, por lo que se prohibe su reproducción o retransmisión, así como su uso para fines comerciales.

Califica esta canción


Comentarios en Facebook