Acordes y tablaturas para guitarra

Acordes y Tablaturas
Usuario: Password:

Buscar:
Acordes y Tablaturas >> Letra B >> Acordes de Bon Jovi >> It´s My Life
Acordes de It´s My Life, Bon Jovi

It´s My Life

Bon Jovi






Mariano Xavier Victor


Cm Cm (com talkbox)

E depois Solinho do teclado (fill):

E|------3-4-3-------
B|----4-------------
G|--5---------------
D|------------------
A|------------------
E|------------------


Introdução 4x

Parte 1
-------
Cm                         Bb      Ab        Introdução 1x
This ain\'t a song for the broken-hearted,
Cm                         Bb      Ab
no silent prayer for the faith-departed.     Introdução 1x
Cm                       Bb          Ab
I ain\'t gonna be just a face in the crowd,
              Cm                    Bb          Ab  Ab Ab
you\'re gonna hear my voice when I shout it out loud 


--------------------------------------------------------
Refrão:
        Cm         Ab            D#
It\'s my life, it\'s now or never,
                Bb          Cm
I ain\'t gonna live forever.
                 Ab             D#    Bb
I just want to live while I\'m alive.
          Cm
It\'s my life, 
                     Ab           D#
my heart is like an open highway,
                      Bb
like Frankie said, I did it my way.
Cm             Ab             Bb
I just wanna live while I\'m alive.
-------------------------------------------------------



Ab   Bb  Cm
It\'s my life 

Introdução 4x

Parte 2
-------
Cm                         Bb      Ab        Introdução 1x
This is for the ones who stood their ground,
Cm                         Bb      Ab        Introdução 1x
for Tommy and Gina who never backed down.
Cm                             Bb        Ab
Tomorrow\'s getting harder make no mistake,
Cm                             Bb             Ab    Ab Ab
luck ain\'t even lucky, got to make your own breaks.

Refrão

Ab   Bb  Cm
It\'s my life

Solo
 (Ab D# Bb Cm Ab D# Bb Ab) 

e depois faça o fill 2:

D|-1--------
A|-----1-3--    
E|---3------  



Parte 3
-------

Cm                               Bb        Ab
Better stand tall when they\'re calling you out,
       Cm                       Bb         Ab    Ab Ab
don\'t bend, don\'t break, baby, don\'t back down !

2x Refrão
    
Ab   Bb  Cm
It\'s my life! 


Obs: nos dois primeiros versos das  partes 1 e 2, toque os acordes 
1x e deixe-os soando, nos dois últimos versos faça uma batida.Na 
parte 3, toque os acordes dos dois versos deixando-os soar.


_______________________________________________________





2ª Versão

INTRO:
Whit talk box

|------------------------|
|------------------------|
|--5--5------x-x--5--5---|
|--5--5------x-x--5--5---|
|--3--3--(0)-x-x--3--3---|
|------------------------|

THIS AIN´T A SONG FOR THE BROKEN-HEARTED

|---------------------------------------------------------|
|---------------------------------------------------------|
|--5----------------------------------------5--5--x-x--5--|
|--5----------------------------------------5--5--x-x--5--|
|--3----------------------------------------3--3--x-x--3--|
|---------------------------------------------------------|

A SILENT PRAYER FOR THE FAITH-DEPARTED

|---------------------------------------------------------|
|---------------------------------------------------------|
|--5--5-------------------------------------5--5--x-x--5--|
|--5--5-------------------------------------5--5--x-x--5--|
|--3--3-------------------------------------3--3--x-x--3--|
|---------------------------------------------------------|
Talk box off

AND I AIN´T GONNA BE JUST A FACE IN THE CROWD, YOU´RE GONNA

Let ring--------------------------------|
|---------------------------------------------------------|
|---------------------------------------------------------|
|--5------------------------------------------------------|
|--5------------------------------------------------------|
|--3------------------------------------------------------|
|---------------------------------------------------------|

HEAR MY VOICE WHEN I SHOT IT OUT LOUD

Let ring--------------------------------|
|---------------------------------------------------------|
|---------------------------------------------------------|
|---------------------------------------------------------|
|--3--3---------------------------------------------------|
|--3--3---------------------------------------------------|
|--1--1---------------------------------------------------|

IT´S MY (C5) LIFE
AND IT´S (G#5) NOW OR NEVER
(Eb5) I AIN´T GONNA (Bb5) LIVE FOREVER
(C5) I JUST WANT TO (G#5) LIVE WHEN I´M (Bb5) ALIVE
(FILL) IT´S MY (C5) LIFE
MY HEART IS LIKE AN (G#5) OPEN HIGHWAY
(Eb5) LIKE FRANKIE SAID, I (Bb5) DID IT MY WAY
(C5) I JUST WANT TO (G#5) LIVE WHEN I´M (Bb5) ALIVE
(FILL) IT´S MY LIFE
		   
		    Whit talk box

		    |-------------------------------------|
		    |-------------------------------------|
		    |--5--5--------------------x-x--5--5--|
		    |--5--5--------------------x-x--5--5--|
		    |--3--3--------------------x-x--3--3--|
		    |-------------------------------------|

THIS IS FOR THE ONE´S WHO STOOD THEIR GROUND

|---------------------------------------------------------|
|---------------------------------------------------------|
|--5----------------------------------------5--5--x-x--5--|
|--5----------------------------------------5--5--x-x--5--|
|--3----------------------------------------3--3--x-x--3--|
|---------------------------------------------------------|

FOR TOMMY AND GINA, NEVER BACK DOWN

|---------------------------------------------------------|
|---------------------------------------------------------|
|--5--5-------------------------------------5--5--x-x--5--|
|--5--5-------------------------------------5--5--x-x--5--|
|--3--3-------------------------------------3--3--x-x--3--|
|---------------------------------------------------------|
Talk box off

TOMORROW´S GETTING HARDER, MAKE NO MISTAKE

Let ring----------------------------|
|---------------------------------------------------------|
|---------------------------------------------------------|
|--5------------------------------------------------------|
|--5------------------------------------------------------|
|--3------------------------------------------------------|
|---------------------------------------------------------|

LUCK AIN´T EVEN LUCKY, YOU GOTTA MAKE YOUR OWN BREAKS

	Let ring----------------------------|
|---------------------------------------------------------|
|---------------------------------------------------------|
|---------------------------------------------------------|
|--x-x--3-------------------------------------------------|
|--x-x--3-------------------------------------------------|
|--x-x--1-------------------------------------------------|

IT´S MY (C5) LIFE
AND IT´S (G#5) NOW OR NEVER
(Eb5) I AIN´T GONNA (Bb5) LIVE FOREVER
(C5) I JUST WANT TO (G#5) LIVE WHEN I´M (Bb5) ALIVE
(FILL) IT´S MY (C5) LIFE
MY HEART IS LIKE AN (G#5) OPEN HIGHWAY
(Eb5) LIKE FRANKIE SAID, I (Bb5) DID IT MY WAY
(C5) I JUST WANT TO (G#5) LIVE WHEN I´M (Bb5) ALIVE
(FILL) IT´S MY LIFE

SOLO whit talk box

|----------------------------------------------------------|
|----------------------------------------------------------|
|----------------------------------------------------------|
|--0h1-0h1-0h1-0h1-0h1-0h1-0h1-0h1-0h1-0h1-0h1-0h1-0h1-0h1-|
|----------------------------------------------------------|
|----------------------------------------------------------|
	
|----------------------------------------------------------|
|-----------------4-6b--6b--6b--6b--6p--4h--6--------------|
|----------------4-----------------------------3--5~~~~~~--|
|--0h1-0h1--0---4------------------------------------------|
|-------------3--------------------------------------------|
|----------------------------------------------------------|

|----------------------------------------------------------|
|----------------------------------------------------------|
|----------------------------------------------------------|
|----1-----------------------------------------------------|
|--3---1---3-----------------------------------------------|
|--------3-------------------------------------------------|

BETTER STAND TALL WHEN THEY´RE CALLING YOU OUT
DON´T BEND, DON´T BREAK, BABY, DON´T BACK DOWN
						
|----------------------------------------------------------|
|----------------------------------------------------------|
|----------------------------------------------------5--5--|
|----------------------------------------------------5--5--|
|----------------------------------------------------3--3--|
|----------------------------------------------------------|
Talk box off

IT´S MY (C5) LIFE
AND IT´S (G#5) NOW OR NEVER
(Eb5) I AIN´T GONNA (Bb5) LIVE FOREVER
(C5) I JUST WANT TO (G#5) LIVE WHEN I´M (Bb5) ALIVE
(FILL) IT´S MY (C5) LIFE
MY HEART IS LIKE AN (G#5) OPEN HIGHWAY
(Eb5) LIKE FRANKIE SAID, I (Bb5) DID IT MY WAY
(C5) I JUST WANT TO (G#5) LIVE WHEN I´M (Bb5) ALIVE
(FILL) IT´S MY (C5) LIFE
AND IT´S (G#5) NOW OR NEVER
(Eb5) I AIN´T GONNA (Bb5) LIVE FOREVER
(C5) I JUST WANT TO (G#5) LIVE WHEN I´M (Bb5) ALIVE
(FILL) IT´S MY (C5) LIFE
MY HEART IS LIKE AN (G#5) OPEN HIGHWAY
(Eb5) LIKE FRANKIE SAID, I (Bb5) DID IT MY WAY
(C5) I JUST WANT TO (G#5) LIVE WHEN I´M (Bb5) ALIVE
(FILL II) IT´S MY LIFE

SOLO BASE

Let ring------------------------------|
|--------------------------------------|
|--------------------------------------|
|-----------3--------------------------|
|--6--------3--------6--------3--------|
|--6--------1--------6--------3--------|
|--4-----------------4--------1--------|


SEQUENCIA DE ACORDES DO REFRÃO

	(C5)		(G#5)	(Eb5)		(Bb5)	
|--------------------------------------------------------|
|--------------------------------------------------------|
|--------5-------------------------8----x-x-------3------|
|--------5-----x-x--------6--------8----x-x-------3------|
|--------3-----x-x--------6--------6----x-x-------1------|
|--------------x-x--------4------------------------------|

	(C5)		(G#5)		(Bb5)	(FILL)	
|--------------------------------------------------------|
|--------------------------------------------------------|
|--------5---------------------x-x--------3--------------|
|--------5-----x-x--------6----x-x--------3--------------|
|--------3-----x-x--------6----x-x--------1--------------|
|--------------x-x--------4------------------------------|

	(C5)		(G#5)	(Eb5)		(Bb5)
|--------------------------------------------------------|
|--------------------------------------------------------|
|--------5------------------------8----x-x--------3------|
|--------5-----x-x--------6-------8----x-x--------3------|
|--------3-----x-x--------6-------6----x-x--------1------|
|--------------x-x--------4------------------------------|

	(C5)		(G#5)		(Bb5)	(FILL)
|--------------------------------------------------------|
|--------------------------------------------------------|
|--------5---------------------x-x--------3--------------|
|--------5-----x-x--------6----x-x--------3--------------|
|--------3-----x-x--------6----x-x--------1--------------|
|--------------x-x--------4------------------------------|

FILL			FILL II

|------------|		|-----------------------|
|------------|		|-----------------------|
|------------|		|-----------------------|
|------------|		|-----------------------|
|--1~~2~~----|		|--3--3--3--3--3--3--3--|
|------------|		|-----------------------|


Legenda:
Let ring = Deixar soar
b = Bend
p = Pul off
h = Hammer on
~ = Vibrato


Que te parecio? Calificalo con estrellas!!

Rating: 7.5/10 (478 votos)

Este fichero es trabajo propio de su transcriptor y representa su interpretación personal de la canción. El material contenido en esta página es para exclusivo uso privado, por lo que se prohibe su reproducción o retransmisión, así como su uso para fines comerciales.


Deja tus comentarios:
Letras de canciones | Musica Independiente