Acordes y tablaturas para guitarra

Acordes y Tablaturas
Usuario: Password:

Buscar:
Acordes y Tablaturas >> Letra K >> Acordes de Kiss >> Wanna Rock N Roll all night
Tablatura de Wanna Rock N Roll all night, Kiss

Wanna Rock N Roll all night

Kiss






del album: Alive (1975)
-----------------------------------------------------

Nota:
h = hammer on
p = pull off
b = bend
 / = slides
-------------------------------------------------------

Intro:
|-10------10-----|-10------10------10----10----5------5----|
|-10------10-----|-10------10------10----10----5------5----|
|-12p11---12p11--|-11------12------12----11----6---9--6--9-|
|-12------12-----|-12------12------12----12----7---9--7--9-|
|-10------10-----|-12------10------10----12----7---7--7--7-|
|-10------10-----|-10------10------10----10----5------5----|

-> You show us every thing you've got

|-5------------------------------------5-------------------|
|-5------------------------------------5-------------------|
|-6--------------9---------------------6-------------------|
|-7--------------9---------------------7-------------------|
|-7--------------7---------------------7-------------------|
|-5------------------------------------5-------------------|

-> You keep on dancin' and the room gets hot

|5---------------------------------------------------------|
|5---------------------------------------------------------|
|6---------------9------------------------------7----------|
|7---------------9------------------------------7----------|
|7---------------7------------------------------5----------|
|5---------------------------------------------------------|

-> You drive us wild, we'll drive you crazy

|---------------------------------------------10-10-10-10--|
|---------------------------------------------10-10-10-10--|
|--7-------------9----------------------------12-11-12-12--|
|--7-------------9----------------------------12-12-12-12--|
|--5-------------7----------------------------10-10-10-10--|
|---------------------------------------------10-10-10-10--|



->Hey you keep on shouting...hey you keep on shouting

|---------------------------------------------------------|
|---------------------------------------------------------|
|-10----10--10--10--10-------12-----12---12---12---12-----|
|-10----10--10--10--10-------12-----12---12---12---12-----|
|-8-----8---8---8---8--------10-----10---10---10---10-----|
|---------------------------------------------------------|

-> I wanna rock & roll all night...'n' party every day (repete)

|--5----------------------------------------------------5-|
|--5----------------------------------------------------5-|
|--6-------------------7--7-7-7-7---9--9-9-9-9-9-9-9----6-|
|--7-------------------7--7-7-7-7---9--9-9-9-9-9-9-9----7-|
|--7-------------------5--5-5-5-5---7--7-7-7-7-7-7-7----7-|
|--5----------------------------------------------------5-|
|
|->I wanna rock & roll all night...'n' party every day (Ultima vez)
|
|--5------------------------------------------10-10-10-10-|
|--5------------------------------------------10-10-10-10-|
|--6-------------------7--7-7-7---9--9-9-9----12-11-12-12-|
|--7-------------------7--7-7-7---9--9-9-9----12-12-12-12-|
|--7-------------------5--5-5-5---7--7-7-7----10-10-10-10-|
|--5------------------------------------------10-10-10-10-|

Solo: (2'25" - 2'59")

|--------5--------5-------5---------5--------5--------5---|
|-5---5----5---5----5--5----5---5-----5--5-----5--5-------|
|-7b-------7b-------7b------7b--------7b-------7b---------|
|---------------------------------------------------------|
|---------------------------------------------------------|
|---------------------------------------------------------|

|--------5---------5---8p5--------------------------------|
|-5--5-----5---5-----------5--8p5-5-----------------7b----|
|-7b-------7b------------------------7--5h7p5---5---7b----|
|---------------------------------------------7-----------|
|---------------------------------------------------------|
|---------------------------------------------------------|

|---------------------------------------------------10----|
|-5--------5--7--5-7b-----7--5----------------------10----|
|-5h7p5----5--7--5-7b-----7--5h7p5------7b----------12p11-|
|-------7---------------------------7---------------12----|
|---------------------------------------------------10----|
|---------------------------------------------------10----|

|-10------10--10--10--10--|------------17-----------17----|
|-10------10--10--10--10--|-------17-----------17---------|
|-12p11---11--12--12--11--|--19b----------19b-------------|
|-12------12--12--12--12--|-------------------------------|
|-10------12--10--10--12--|-------------------------------|
|-10------10--10--10--10--|-------------------------------|

|----------17----------17-----------17--------17----------|
|------17----------17----------17---------------20p17-----|
|-19b---------19b---------19b----------19b------------19--|
|---------------------------------------------------------|
|---------------------------------------------------------|
|---------------------------------------------------------|

|-------------------|----------------------------------20b|
|-20p1720p17----20--|-17h20p17----17h20p17----17----17----|
|------------19-----|----------19----------19----19-------|
|-------------------|-------------------------------------|
|-------------------|-------------------------------------|
|-------------------|-------------------------------------|

|-(20)20b-----------------|----------20-------------------|
|------------17h20p17-----|-17----------------------------|
|---------------------19--|----19b--------19b--(19)p17----|
|-------------------------|----------------------------19-|
|-------------------------|-------------------------------|
|-------------------------|-------------------------------|

|-10-----10-------|-10--10--10--10------------------------|
|-10-----10-------|-10--10--10--10---------13--------15---|
|-12p11--12p11----|-11--12--12--11--(13h14)13--------15---|
|-12-----12-------|-12--12--12--12---------------15-------|
|-10-----10-------|-12--10--10--10------------------------|
|-10-----10-------|-10--10--10--10------------------------|

|--------------------------|-----------------19------17--|
|----------13-----------15-|------17----------------------|
|-----(13)h14------(15)h16-|------17-----19-------17------|
|-15-----------15----------|---17----17/------------------|
|--------------------------|------------------------------|
|--------------------------|------------------------------|

|--------------------------|------------------------------|
|-----15-------------------|------------------------------|
|--15h16-------------------|------------------------------|
|--------------------------|------------------------------|
|--------------------------|------------------------------|
|--------------------------|------------------------------|

-> I wanna rock & roll all night...'n' party every day (repete)

|--5----------------------------------------------------5-|
|--5----------------------------------------------------5-|
|--6-------------------7--7-7-7-7---9--9-9-9-9-9-9-9----6-|
|--7-------------------7--7-7-7-7---9--9-9-9-9-9-9-9----7-|
|--7-------------------5--5-5-5-5---7--7-7-7-7-7-7-7----7-|
|--5----------------------------------------------------5-|
|
|->I wanna rock & roll all night...'n' party every day (Ultima vez)
|
|--5------------------------------------------10-10-10-10-|
|--5------------------------------------------10-10-10-10-|
|--6-------------------7--7-7-7---9--9-9-9----12-11-12-12-|
|--7-------------------7--7-7-7---9--9-9-9----12-12-12-12-|
|--7-------------------5--5-5-5---7--7-7-7----10-10-10-10-|
|--5------------------------------------------10-10-10-10-|

|---------------------------------------------------------|
|---------------------------------------------------------|
|-10----10--10--10--10-------12-----12---12---12---12-----|
|-10----10--10--10--10-------12-----12---12---12---12-----|
|-8-----8---8---8---8--------10-----10---10---10---10-----|
|---------------------------------------------------------|

|-------------------------------5/------------------------|
|-------------------------------5/------------------------|
|--7b-5-7-5---------------------6/------------------------|
|-----------7-6-5---------------7/------------------------|
|-----------------7-6-5---------7/------------------------|
|-------------------------------5/------------------------|


Que te parecio? Calificalo con estrellas!!

Rating: 6.9/10 (183 votos)

Este fichero es trabajo propio de su transcriptor y representa su interpretación personal de la canción. El material contenido en esta página es para exclusivo uso privado, por lo que se prohibe su reproducción o retransmisión, así como su uso para fines comerciales.


Deja tus comentarios:
Letras de canciones | Musica Independiente