Enviado por: markote
Agrandar Letra
Reducir Letra
Imprimir


Otras Versiones de Angel De Los Perdedores:









El Soldado, Angel De Los Perdedores

INTRO:
GUITARRA:
   LAm               LAm/Sol           LAm/FA#        FA
E|----------------|---------------|---------------|------------------|
B|----------1-----|-------------1-|------------1--|-------------3----|
G|----------------|---------------|---------2-----|-----------2---2--|X2
D|-----2-------2--|-------2-------|---------------|------------------|
A|--0-------------|---------------|---------------|------------------|
E|----------------|---3-----------|--2-----------2|-----1------------|


VERSO 1:
  LAm               LAm/Sol           LAm/FA#        FA
E|----------------|---------------|---------------|------------------|
B|----------1-----|-------------1-|------------1--|-------------3----|
G|----------------|---------------|---------2-----|-----------2---2--|X7
D|-----2-------2--|-------2-------|---------------|------------------|
A|--0-------------|---------------|---------------|------------------|
E|----------------|---3-----------|--2-----------2|-----1------------|


Am	 Am/g	       LAm/F#	F	     (Am Am/g LAm/F# F)
Apretando bien el paquete apuraste fuera ese vaso
Am	 Am/g	       LAm/F#	  F	     (Am Am/g LAm/F# F)
saliste corriendo a la calle que te estaba llamando
Am	 Am/g	       LAm/F#	F	   (Am Am/g LAm/F# F)  
'la puta, que feo que fuese sin la margarita
Am          Am/g      LAm/F#	F	     PUENTE
las sirenas estan sonando y yo sin agua bendita'


PUENTE 1:
  LAm               LAm/Sol           LAm/FA#        FA
E|----------------|---------------|---------------|------------------|
B|----------1-----|-------------1-|------------1--|-------------3----|
G|----------------|---------------|---------2-----|-----------2---2--|x3 y despues hce los 
D|-----2-------2--|-------2-------|---------------|------------------|  acordes pero rasgueando
A|--0-------------|---------------|---------------|------------------| [LAm-Lam/Sol-LAM/FA#-FA]
E|----------------|---3-----------|--2-----------2|-----1------------|             X1


GUITARRA 2: (PUNTEO 1)
E|------------------------|-10/-12--7--10/12---------|-8-5----------------|8-5------5-/-7--(17)|
B|-5-/(10)~--/(13)b--(10)-|------------------13-(10)-|-----8------5-/(10)~|---8---5------------|
G|------------------------|--------------------------|-------7/5----------|-----7--------------|
D|------------------------|--------------------------|--------------------|--------------------|
A|------------------------|--------------------------|--------------------|--------------------|
E|------------------------|--------------------------|--------------------|--------------------|

BAJO: entra en la segunda vuelta
G|------------------------------|-------------------------------||
D|------------------------------|-------------------------------||
A|------------------------------|-------------------------------||
E|--/-(5)----(3)----(2)--2--(1)-|--/-(5)----(3)----(2)--2--(1)--||


VERSO 2  :

 "La noche te rompe la copa vendiendote ilusiones
dejándote retazos de suños por los rincones      fill 1
'pero, nena, tu risa es la magis de los rocanroles 
tatuada llevo la marca de tus aguijones".


GUITARRA 1:
           [LAm-  Lam/Sol-  LAM/FA#-  FA] X8 (rasgueando)

BAJO:
G|--------|------|----------|------|
D|--------|------|----------|------|X8
A|--------|------|----------|------|
E|---/(5)-|-0-(3)|-5-(2)--2-|(1)---|


GUITARRA 2:
  Fill 1             
e|------------------------|    
B|----/-(10)---------(10)-|   
G|-----------12-----------|     
D|-------------12-10------|    
A|------------------------|    
E|------------------------|    


ESTRIBILLO 1:

Fa					(Am Am/g Lam/F# F) 
Curaste todas tus heridas con agua podrida
Fa	 					(Am Am/g Lam/F# F) 
Le mentiste al diablo tres veces vendiéndole flores
Am	 Am/g	       LAm/F#	F	   (Am Am/g Lam/F# F)  
Y te llevaste en andas al angel de los perdedores

GUITARRA 1:                                          ______________X2_____________
e|--------|--------|-----|--------|-------|------|--|-----|--------|-------|------|
B|--------|--------|-----|--------|-------|------|--|-----|--------|-------|------|
G|---FA---|-FA-----|-LAm-|Lam/Sol-|LAM/FA#|-FA---|X2|-LAm-|Lam/Sol-|LAM/FA#|-FA---|
D|--------|--------|-----|--------|-------|------|--|-----|--------|-------|------|
A|--------|--------|-----|--------|-------|------|--|-----|--------|-------|------|
E|--------|--------|-----|--------|-------|------|--|-----|--------|-------|------|

BAJO:  FA             LA        SOl     FA#     FA       ______________X2_____________
G|-------------------|--------|------|----------|---|--|--------|------|----------|------|
D|-------------------|--------|------|----------|---|X2|--------|------|----------|------|
A|-------------------|--------|------|----------|---|--|--------|------|----------|------|
E|--(1)---(1)---1111-|---/(5)-|-0-(3)|-5-(2)--2-|(1)|--|---/(5)-|-0-(3)|-5-(2)--2-|(1)---|

GUITARRA 2: FA
e|---------------|-----|--------|-------|------|--|-12-------|--------------------|
B|--/(6)----/(6)-|-----|--------|-------|------|--|---13b----|-13-----------------|
G|---------------|-LAm-|Lam/Sol-|LAM/FA#|-FA---|X2|------(14)|----14-12-----------|
D|---------------|-----|--------|-------|------|--|----------|----------14--------|
A|---------------|-----|--------|-------|------|--|----------|--------------------|
E|---------------|-----|--------|-------|------|--|----------|--------------------|


SOLO DE GUITARRA:

GUITARRA 1: [LAm-Lam/Sol-LAM/FA#-FA] X8

BAJO: LA     SOL    FA#       FA
G|--------|------|----------|------|
D|--------|------|----------|------|X8
A|--------|------|----------|------|
E|---/(5)-|-0-(3)|-5-(2)--2-|(1)---|

GUITARRA 2:
e|---------|-----8-----7----(5)-|------12----10----8--/5--(5)-|-----------------|---------------|
B|---------|----------------(5)-|-----------------------------|-----------------|-15b-13----15b-|
G|-12/(14)-|-5/8-----7----5-----|-9/12----10----8-----/5------|-7b-5---7br-5----|--------14-----|
D|---------|--------------------|-----------------------------|------7------(7)-|---------------|
A|---------|--------------------|-----------------------------|-----------------|---------------|
E|---------|--------------------|-----------------------------|-----------------|---------------|

e|------------|----------------------------------------------------|-----8-----7------(5)-|
B|-13h15------|--15b-13----17b-(17)-17-(17)----13-15-15b-13h15-----|------------------(5)-|
G|-------(14)-|---------14------------------14----------------(14)-|-5/8-----7----5-------|
D|------------|----------------------------------------------------|----------------------|
A|------------|----------------------------------------------------|----------------------|
E|------------|----------------------------------------------------|----------------------|

e|------12----10----8--/5--(5)-|
B|-----------------------------|
G|-9/12----10----8-----/5------|
D|-----------------------------|
A|-----------------------------|
E|-----------------------------|


VERSO 3: (Igual)

Escondistes todos tus recuerdos en una guarida
jurando que nunca dirias alguna mentira
Pero vienes de esos callejones que funden alcoholes 
Donde solo campeonan los peores



REPITE ESTRIBILLO (igual)


Fa					(Am Am/g Lam/F# F) 
Curaste todas tus heridas con agua podrida
Fa	 					(Am Am/g Lam/F# F) 
Le mentiste al diablo tres veces vendiéndole flores
Am	 Am/g	       LAm/F#	F	   (Am Am/g Lam/F# F)  
Y te llevaste en andas al angel de los perdedores



final...


----------------------------------------------------------------
bla bla bla .. espero que les sirba
Aviso: Este fichero es trabajo propio de su transcriptor y representa su interpretación personal de la canción. El material contenido en esta página es para exclusivo uso privado, por lo que se prohibe su reproducción o retransmisión, así como su uso para fines comerciales.

Califica esta canción


Comentarios en Facebook