Enviado por: ian.17_vm
Agrandar Letra
Reducir Letra
Imprimir






Iron Maiden, The Trooper

intro:

e|---------------------------------|
B|---------------------------------|
G|---------------------------------|  X4
D|---------------------------5-----|
A|-7-7-5---5-5-3---3-3-1---5---5-7-|
E|-------7-------5-------3---------|

e|-----------7---------------------|
B|-8-7h8p7h8---8h7p8h7-------8-----|
G|---------------------9-9-7---7-9-|  X8
D|---------------------------------|
A|---------------------------------|
E|---------------------------------|

Espero q les haya gustado
agreguen ant una consulta

[email protected] 
Aviso: Este fichero es trabajo propio de su transcriptor y representa su interpretación personal de la canción. El material contenido en esta página es para exclusivo uso privado, por lo que se prohibe su reproducción o retransmisión, así como su uso para fines comerciales.

Califica esta canción


Comentarios en Facebook