Acordes y tablaturas para guitarra

Acordes y Tablaturas
Usuario: Password:

Buscar:
Acordes y Tablaturas >> Letra f >> Acordes de fall out boy >> dance, dance
Tablatura de dance, dance, fall out boy

Dance, dance

Fall out boy






Tuning: standard

Intro is played by drums and bass

Verse:
e|-----------------|
B|-----------------|
G|-6-4---6-4---7---| X4
D|-----4-----4---4-|
A|-----------------|
E|-----------------|
PM ...............

 "Weighed down with words too overdramatic.."

Pre-chorus:
e|---------------|    |-----------------|
B|---------------|    |-----------------|
G|---------------| X1 |-----------------| X3
D|-----0-4-4-2-4-|    |-------0-4-4-2-4-|
A|-2-4-----------|    |-2-2-4-----------|
E|---------------|    |-----------------|

"I'm two quarters and a heart down..."

e|-----------------|
B|-----------------|
G|-6-4---6-4---7---| X1
D|-----4-----4---4-|
A|-----------------|
E|-----------------|
PM 

Coro:
e|--------------|
B|--------------|
G|-4--7---------| X4
D|-4--7--5--4-7-|
A|-2--5--5--4-7-|
E|-------3--2-5-|

 "Dance, dance..."

Guitarra 1:
e|-----------------|
B|-----------------|
G|-6-4---6-4---7---| X4
D|-----4-----4---4-|
A|-----------------|
E|-----------------|
PM ...............

Guitarra 2:
e|-------------------|
B|-------------------|
G|-------7-------7/0-| X4
D|-------------------|
A|-------5-------5/0-|
E|-------------------|

Pause for "You always fold just"

Guitarra 1:
e|-----------------|
B|-----------------|
G|-6-4---6-4---7---| X3
D|-----4-----4---4-|
A|-----------------|
E|-----------------|
PM ...............

Guitarra 2:
e|-------------------|
B|-------------------|
G|-------7-------7/0-| X3
D|-------------------|
A|-------5-------5/0-|
E|-------------------|

"...Before you're found out..."

Pre-coro:
e|---------------|    |-----------------|
B|---------------|    |-----------------|
G|---------------| X1 |-----------------| X3
D|-----0-4-4-2-4-|    |-------0-4-4-2-4-|
A|-2-4-----------|    |-2-2-4-----------|
E|---------------|    |-----------------|

"I'm two quarters and a heart down..."

a qui la bataka

e|-xx-xxxx-|
B|-xx-xxxx-|
G|-xx-xxxx-|
D|-xx-xxxx-|
A|-xx-xxxx-|
E|-xx-xxxx-|

Coro:
e|--------------|
B|--------------|
G|-4--7---------| X4
D|-4--7--5--4-7-|
A|-2--5--5--4-7-|
E|-------3--2-5-|

 "Dance, dance..."

Bridge:
e|-------------------------------------------------|--------------|---------|
B|-------------------------------------------------|--------------|-11b-11--|
G|-4-4-4-4-4-4-4-4-6-6-6-6-6-6-6-6-7-7-7-7-7-7-7-7-|-7-7-9-9-1111-|---------|
D|-4-4-4-4-4-4-4-4-6-6-6-6-6-6-6-6-7-7-7-7-7-7-7-7-|--------------|---------|
A|-2-2-2-2-2-2-2-2-4-4-4-4-4-4-4-4-5-5-5-5-5-5-5-5-|-5-5-7-7-9-9--|---------|
E|-------------------------------------------------|--------------|---------|

e|-------------------------------------------------|------------------|
B|-------------------------------------------------|------------------|
G|-4-4-4-4-4-4-4-4-6-6-6-6-6-6-6-6-7-7-7-7-7-7-7-7-|-7-7-9-9-11111111-|
D|-4-4-4-4-4-4-4-4-6-6-6-6-6-6-6-6-7-7-7-7-7-7-7-7-|------------------|
A|-2-2-2-2-2-2-2-2-4-4-4-4-4-4-4-4-5-5-5-5-5-5-5-5-|-5-5-7-7-9-9-9-9--|
E|-------------------------------------------------|------------------|

 "Why don't you show me a little bit of spine.."

e|---------------------------------|-------------------------------|--------------------------|
B|---------------------------------|--------------1212111112121414-|--------------------------|
G|-4-4-4-4-4-4-4-4-6-6-6-6-6-6-6-6-|-7-7-9-9-1111------------------|--11-11-11-11-11-11-11-11-|
D|-4-4-4-4-4-4-4-4-6-6-6-6-6-6-6-6-|--------------9-9-8-8-9-9-1111-|--------------------------|
A|-2-2-2-2-2-2-2-2-4-4-4-4-4-4-4-4-|-5-5-7-7-9-9-------------------|--9--9--9--9--9--9--9--9--|
E|---------------------------------|-------------------------------|--------------------------|

 "I only want sympathy in the form of..."

e|-xxx-x-xx
B|-xxx-x-xx
G|-xxx-x-xx
D|-xxx-x-xx
A|-xxx-x-xx
E|-xxx-x-xx

Coro:
e|--------------|
B|--------------|
G|-4--7---------| X6
D|-4--7--5--4-7-|
A|-2--5--5--4-7-|
E|-------3--2-5-|

 "Dance, dance..."

*Wait again for bass and drums*

Otro:
e|-----------------|    e|---------------|
B|-----------------|    B|---------------|
G|-6-4---6-4---7---| X3 G|-6-4---6-4---7-| X1
D|-----4-----4---4-|    D|-----4-----4---|
A|-----------------|    A|---------------|
E|-----------------|    E|---------------|
PM       PM 




Que te parecio? Calificalo con estrellas!!

Rating: 7.8/10 (198 votos)

Este fichero es trabajo propio de su transcriptor y representa su interpretación personal de la canción. El material contenido en esta página es para exclusivo uso privado, por lo que se prohibe su reproducción o retransmisión, así como su uso para fines comerciales.


Deja tus comentarios:
Letras de canciones | Musica Independiente