Enviado por: aricachuwoquen
Agrandar Letra
Reducir Letra
Imprimir






Beethoven, Himno A La Alegria

1-------------------------------------------
2-------------------------------------------
3-6-6-7-9-9-7-6-4-2-2-4-6-6---4-------------
4-------------------------------------------
5-0-0-0-0-0-0-0-0-0-0-0-0-------------------
6-------------------------0---0-------------



1-------------------------------------------
2-------------------------------------------
3-6-6-7-9-9-7-6-4-2-2-4-6-4--2--------------
4-------------------------------------------
5-0-0-0-0-0-0-0-0-0-0-0-0----0--------------
6-------------------------0-----------------
Aviso: Este fichero es trabajo propio de su transcriptor y representa su interpretación personal de la canción. El material contenido en esta página es para exclusivo uso privado, por lo que se prohibe su reproducción o retransmisión, así como su uso para fines comerciales.

Califica esta canción


Comentarios en Facebook