Acordes y tablaturas para guitarra

Acordes y Tablaturas
Usuario: Password:

Buscar:
Acordes y Tablaturas >> Letra G >> Acordes de Guasones >> Todavia
Acordes de Todavia, Guasones

Todavia

Guasones






Intro

e---------------------------
B------3----3-1-------------
G--0---0--0------3/4-5-4----
D---------------------------
A---------------------------
E---------------------------
Esta intro se repite durante la primera estrofa...


e---------------------------
B------3----3-1-------------
G--0---0--0------3/4-5-4----
D---------------------------
A---------------------------
E---------------------------
Todavia me resisto, a la absurda tentacion


En la segunda parte parte toca el acorde y despues tira
 las tres primeras cuerdas (e,B,G)o sea rasguea con
el pulgar y tira las primeras tres cuerdas, de esta manera

   G              Dsus4
e--3----3----------3----3
B--3----3----------3----3
G--0----0----------1----1
D--0---------------------
A--2---------------------
E--3---------------------
de pisar el freno, no pasarla bueno,

   Em
e------------------
B-----0-0-1-3------
G-----0-0-0-0-0----
D--2---------------
A--2---------------
E------------------
disfrasarme de alguien que no soy.


Esta parte tambien la hace arpegiada (con los punteados de
arriba)


     G           C              G          C
todavia tengo amigos, que me quieren como soy
          G                    Dsus4/f#
siempre un poco loco y, todo lo que toco,
     Em             C
lo quiebro pido perdon.


coro:

D                   Am            C
 y aca me ves, escapandole al fuego que sigue quemando.
D                   Am            C
 esa oracion, libertad, anciedad, un amor, soledad.
D            Am - C
 y asi vivi, mucho mejor ...


  todavia siento ganas, de llamarla alguna vez,
  y decirle que, cuando ella se fue,
   un viento me arranco de pie.

   todavia que respiro, nena cuando salgo a nadar,
   por un mar oscuro, donde todo es duro,
    y el agua se hace cristal.


   CORO....

   todavia que me rió, del amor del cafe y de dormir,
    y si lo sufri, fue casualidad,
    un error nunca te hace mal.

   todavia que te quiero, y no quiero quererte otra vez
   pero si con vos, tanto me aleje,
   que vole y jamas regrese.

los acordes...por las dudas
   G -C-Dsus4/F#-Em
1x--3-------3---0---------
2x--0---1---3---0---------
3x--0---0---2---0---------
4x--0---2---0---2---------
5x--2---3---0---2---------
6x--3-------2---0---------


EL SOLO DEL FINAL SE LOS DEBO NO LO TENGO TODAVIA


Que te parecio? Calificalo con estrellas!!

Rating: 6.5/10 (71 votos)

Este fichero es trabajo propio de su transcriptor y representa su interpretación personal de la canción. El material contenido en esta página es para exclusivo uso privado, por lo que se prohibe su reproducción o retransmisión, así como su uso para fines comerciales.


Deja tus comentarios:

Letras de Guasones
Letras de canciones | Musica Independiente