Acordes y tablaturas para guitarra

Acordes y Tablaturas
Usuario: Password:

Buscar:
Acordes y Tablaturas >> Letra E >> Acordes de Elfen Lied >> Lilium
Tablatura de Lilium, Elfen Lied

Lilium

Elfen Lied






A qui les dejo una tab de un anime que esta fregon 
si lo pueden ber peus k bn 

bueno saludos

e-----9-----------------------------9-----------------------
B--7-----9-----------9---10------7------9----------9--10-12-
G--------------10-----------------------------10------------
D------------11-----------------------------11--------------
A--------8---------------9--------------8-------------9-----
E-----------------------------------------------------------

e---------------------4------------------1---------0--2-----
B--10---7--------0------5-3-5----2---------3-2-3---------0-1
G------------7-----------------1---1-3----------------------
D-------0--7---7--------------------------------------------
A---------------------------4------------------2------------
E-----------------------------------------------------------

e--4--5--7--5----------4------------------------------------
B-----------------------------------------------------------
G----------------6------------------------------------------
D--------------4---4----------------------------------------
A-----------4----------4------------------------------------
E-----------------------------------------------------------

e-----9-----------------------------9-----------------------
B--7-----9-----------9---10------7------9----------9--10-12-
G--------------10-----------------------------10------------
D------------11-----------------------------11--------------
A--------8---------------9--------------8-------------9-----
E-----------------------------------------------------------

e---------------------4------------------1-----------7---5--
B--10---7--------0------5-3-5----2---------3-2-3------------
G------------7-----------------1---1-3----------------------
D-------0--7---7--------------------------------------------
A---------------------------4------------------2---------4--
E-----------------------------------------------------------


e--4--2----------------------6--7--9---10-----------10--9---
B--------6---4---6---7-------7--9--11--12---10--9-----------
G-----------------------------------------------9-----------
D--------------------4-----------------0--------------------
A-----4------4------------------------------------------0---
E-----------------------------------------------0-----------

e--12-----9--8---5--4----------------6--7--9---10-----------
B-----10----------------6--3--2------7--9--11--12---10---9--
G--------------------------------------------------------9--
D------------0---------------------------------0------------
A-----9-------------4---------4-----------------------------
E--------------------------------------------------------0--


e--10--9--12-----9--8---5--4--2--5----------7-----4---------
B------------10-----------------------------------2---------
G--------------------------------------6--------------------
D------------------------------------4----------------------
A------0-----9------7------------4--------------------------
E-----------------------------------------------------------

e-----9-----------------------------9-----------------------
B--7-----9-----------9---10------7------9----------9--10-12-
G--------------10-----------------------------10------------
D------------11-----------------------------11--------------
A--------8---------------9--------------8-------------9-----
E-----------------------------------------------------------

e---------------------4------------------1-----------7---5--
B--10---7--------0------5-3-5----2---------3-2-3------------
G------------7-----------------1---1-3----------------------
D-------0--7---7--------------------------------------------
A---------------------------4------------------2---------4--
E-----------------------------------------------------------

e--4--2----------------------------------------------------
B--------6---4---6---7-------------------------------------
G-------------------------------Lilim……--------------------
D--------------------4-------------------------------------
A-----4------4---------------------------------------------
E----------------------------------------------------------


Que te parecio? Calificalo con estrellas!!

Rating: 8.6/10 (453 votos)

Este fichero es trabajo propio de su transcriptor y representa su interpretación personal de la canción. El material contenido en esta página es para exclusivo uso privado, por lo que se prohibe su reproducción o retransmisión, así como su uso para fines comerciales.


Deja tus comentarios:
Letras de canciones | Musica Independiente