Acordes y tablaturas para guitarra

Acordes y Tablaturas
Usuario: Password:

Buscar:
Acordes y Tablaturas >> Letra R >> Acordes de Radiohead >> Creep
Tablatura de Creep, Radiohead

Creep

Radiohead






        'Creep', Radiohead
_________________________________
-Album: "Pablo Honey" / "Paul Honey" (1993)
-Afinación: EADGBe

*Transcripto completamente por: Seba Ar.
*buenos aires, argentina, 2007 diciembre
*MSN o Email por cualquier duda o comentario: [email protected]
*por favor acordate de Votar y de Comentar este tema, si te gusta también.

+Esto esta diseñado para guitarristas que tienen mas o menos experiencia tocando (es decir, si recien estar aprendiendo 
acordes busquen otras versiones en esta mismo sitio web que subi mas faciles)
+Está 100% bien, le inclui algunas partes en el Bridge/Puente que  quedan muy bien.
+hay 2 guitarras: La Distorcionada que no aparece hasta el estribillo y/o el Bridge. y La otra (guitarra 2) hace los arpegios y acordes de 5 y bases.

_________________________________

 
DIAGRAMA DE ACORDES 'RAROS' O 'MENOS CONOCIDOS':
  
  B7    Cm
e|2------3---------------------------------------------------------------------|
B|0------4---------------------------------------------------------------------|
G|2------5---------------------------------------------------------------------|
D|1------5---------------------------------------------------------------------|
A|2------3---------------------------------------------------------------------|
E|x------x---------------------------------------------------------------------|

=====================================================================================
LETRA:


Guitarra 2 hace en todos los VERSOS las siguietne 4 figuras:
             
                G
e|---------------------------------------------------------------------------|
B|-----------------3---------3-------------------------------------------------|
G|----------4--------4----4---4--------------------------------------------------|
D|----5---5---5---------5--------------------------------------------------------|
A|--5---5-------5---------------------------------------------------------------|
E|3---------------------------------------------------------------------------|
        
                  B7
e|----------------2---------2--------------------------------------------------|
B|----------3-------3---3----3---------------------------------------------------|
G|----4---4---4-------4----------------------------------------------------------|
D|--4---4-------4---------------------------------------------------------------|
A|2---------------------------------------------------------------------------|
E|---------------------------------------------------------------------------|

                  C
e|----------------3--------5---------------------------------------------------|
B|----------5-------5---5---5----------------------------------------------------|
G|----5---5---5-------5----------------------------------------------------------|
D|--5---5-------5---------------------------------------------------------------|
A|3---------------------------------------------------------------------------|
E|---------------------------------------------------------------------------|

                 Cm
e|-----------------3----------3------------------------------------------------|
B|-----------4-------4---4-----4-------------------------------------------------|
G|-------5-----5-------5--------------------------------------------------------|
D|---------5-----5-------------------------------------------------------------|
A|0-2-3-------------------------------------------------------------------------|
E|---------------------------------------------------------------------------|

___________________________________________________
Letra:
                     G
When you were here before,
                          B7
Couldn't look you in the eye
                     C
You're just like an angel,
                   Cm
Your skin makes me cry

                 G
You float like a feather
                B7
In a beautiful world
               C
I wish I was special

( aca se escuchan dos sonidos fuertes que son: )

                            //aca se hace palm mute, o muting en                                                      .                              todos los casilleros 12//
e|--------x----------------------------x-x--------------------------------------|
B|-------(x)x-------------------------(0)x------------------------------------------|
G|-------(0)x-------------------------(0)x------------------------------------------|
D|-------(0)x--------------------------x-x-----------------------------------------|
A|--------x-x--------------------------x-x---------------------------------------|
E|x)(x)---x----------------------------x-x--------------------------------------|
You're so f*cking special

           G5                              B5
e|---------3v------------------------------7v------------------------------------|
B|---------3v------------------------------7v------------------------------------|
G|---------4v------------------------------6v------------------------------------|
D|---------5v------------------------------9v------------------------------------|
A|---------5v------------------------------9v------------------------------------|
E|---------3v------------------------------7v------------------------------------|         
But I'm a creep,                    I'm a weirdo

                            C5                   Cm
e|--------------------------x-------------------------------------------------|
B|--------------------------x-------------------------------------------------|
G|--------------------------5-----7---8----10v..------------------/5...-------------------|
D|--------------------------x-----x---x----x----------------------/x---------------|
A|--------------------------3-...-5..-6..--8v..-------------------/3-----------------------|
E|--------------------------x-------------------------------------------------|
What the hell am I doin' here?           I don't belong here


                   G
I don't care if it hurts,
                 B7
I wanna have control
                 C
I want a perfect body
                  Cm
I want a perfect soul

                G
I want you to notice
              B7
when I'm not around
                   C7
You're so fucking special
                Cm
I wish I was special

e|--------x----------------------------x-x--------------------------------------|
B|-------(x)x-------------------------(0)x------------------------------------------|
G|-------(0)x-------------------------(0)x------------------------------------------|
D|-------(0)x--------------------------x-x-----------------------------------------|
A|--------x-x--------------------------x-x---------------------------------------|
E|x)(x)---x----------------------------x-x--------------------------------------|



           G5                              B5
e|---------3v------------------------------7v------------------------------------|
B|---------3v------------------------------7v------------------------------------|
G|---------4v------------------------------6v------------------------------------|
D|---------5v------------------------------9v------------------------------------|
A|---------5v------------------------------9v------------------------------------|
E|---------3v------------------------------7v------------------------------------|         
But I'm a creep,                    I'm a weirdo

                            C5                   Cm
e|--------------------------x-------------------------------------------------|
B|--------------------------x-------------------------------------------------|
G|--------------------------5-----7---8----10v..-----------------------------------|
D|--------------------------x-----x---x----x----------------------------------|
A|--------------------------3-...-5..-6..--8v..-----------------------------------------|
E|--------------------------x-------------------------------------------------|
What the hell am I doin' here?           I don't belong here

e|---------------------------------------------------------------------------|
B|---------------------------------------------------------------------------|
G|-12------14----12--11----7---8----16--11-------------------------------------------------|
D|-x-------x-----x---x-----x---x----x---x--------------------------------------------|
A|-10------12----10--9-----5---6----14--9------------------------------------------------|
E|---------------------------------------------------------------------------|
  She's    run-ning out    the do---o----r

e|---------------------------------------------------------------------------|
B|x---------------------------------------------------------------------------|
G|12------14-12---11-----------------------------------------------------------------|
D|12------x--x----x---------------------------------------------------------------|
A|10------12-10---9-----------------------------------------------------------------|
E|---------------------------------------------------------------------------|
  She's   running out

e|---------------------------------------------------------------------------|
B|---------------------------------------------------------------------------|
G|-7--8-------10----12----14-----12------11----------------------------------------------|
D|-x--x-------x-----x-----x------x-------x------------------------------------------|
A|-5--6-------8-----10----12-----10------9---------------------------------------------|
E|---------------------------------------------------------------------------|
  She run  - run -  run - ru-----uu------un...

e|---------------------------------------------------------------------------|
B|---------------------------------------------------------------------------|
G|-14---12----11-12/5------------------------------------------------------------------|
D|-x----x-----x--x--x-------------------------------------------------------------|
A|-12---10----9--10/3-----------------------------------------------------------------|
E|---------------------------------------------------------------------------|
   ru----u------n...

                   G
Whatever makes you happy
             B7
Whatever you want
                     C
You're so fucking special
               Cm
I wish I was special

            G
But I'm a creep,
       B7
I'm a weirdo
                         C
What the hell am I doin' here?
              Cm
I don't belong here

           G
I don't belong here...



________________________________________________________
REFERENCIAS:

| /  Slide o Deslizar hasta...
| v  vibrato o Mantener un momento, o dejar sonando
| x  Palm Mute o Mutting (cosa que "no suene" la nota/s)
| (0) nota fantasma o nota opcional o con efecto


Que te parecio? Calificalo con estrellas!!

Rating: 8.1/10 (346 votos)

Este fichero es trabajo propio de su transcriptor y representa su interpretación personal de la canción. El material contenido en esta página es para exclusivo uso privado, por lo que se prohibe su reproducción o retransmisión, así como su uso para fines comerciales.


Deja tus comentarios:

Letras de Radiohead
Letras de canciones | Musica Independiente