Acordes y tablaturas para guitarra

Acordes y Tablaturas
Usuario: Password:

Buscar:
Acordes y Tablaturas >> Letra T >> Acordes de The Beatles >> All you need is Love
Tablatura de All you need is Love, The Beatles

All you need is Love

The Beatles






'All you need is Love', The Beatles
________________________________________________

*Por Sebas Ar. (mi msn email por cualquier duda o comentario es: [email protected] )
*Buenos aires, argentina, 2007 diciembre.
*Una de las canciones más linda de Los Beatles...y también muy cierta.

Notas: 
Está 100% BIEN, puede que alguno que otro acorde suene mal para ustedes o quede
raro, pero están bien, los acordes de la mayoria de las canciones de ellos siempre suenan como... "raro", pero le aseguro, estan bien todos.
________________________________________________

DIAGRAMA DE ACORDES 'RAROS' O 'MENOS CONOCIDOS':

  B7  Am7  D7
e|2---3----2----
B|0---1----1----
G|2---2----2----
D|1---2----0----
A|2---0----x----
E|x---x----x-----
________________________________________________


INTRO (Himno francés, "La Marseillaise"):
e|-------------------10vvv--------------------------------
B|------------10-10---------12----12----------13/10----10
G|------12-12------------------12-------------------12---
D|12-12--------------------------------14-14-------------
A|-------------------------------------------------------
E|-------------------------------------------------------


Letra:

G      D     Em
Love, love, love, 
G      D     Em
love, love, love, 
D7     G    D7
love, love, love.


         G              D                Em
There's nothing you can do that can't be done.
G                D                 Em
Nothing you can sing that can't be sung.
D7              G                D7
Nothing you can say but you can learn how to play the game
D7
It's easy.

        G               D                  Em
There's nothing you can make that can't be made.
G              D                  Em
No one you can save that can't be saved.
D7             G          D7
Nothing you can do but you can learn how to be in time.
D7
It's easy.


Estribillo:
G         D      D7   G        D        D7                 
 All you need is love, all you need is love,
G        B7      Em     G    Am7     C       G  
 All you need is love, love, love is all you need.

Solo:
e|-------------------------------------------------------------------------|
B|---10-12--10-8---8s10-8------10s12-12--10-8-10--8s10p8---13-12--13-12-10-|
G|-7----------------------9--7---------------------------9vvv--------------|
D|-------------------------------------------------------------------------|
A|-------------------------------------------------------------------------|
E|-------------------------------------------------------------------------|


//repite los mismos acordes toda la canción//

Love, love, love, love, love, love, love, love, love.
All you need is love, all you need is love,
All you need is love, love, love is all you need.
There's nothing you can know that isn't known.
Nothing you can see that isn't shown.
Nowhere you can be that isn't where you're meant to be.
It's easy.
All you need is love, all you need is love,
All you need is love, love, love is all you need.
All you need is love (all together now)
All you need is love (everybody)
All you need is love, love, love is all you need.


Que te parecio? Calificalo con estrellas!!

Rating: 7.3/10 (165 votos)

Este fichero es trabajo propio de su transcriptor y representa su interpretación personal de la canción. El material contenido en esta página es para exclusivo uso privado, por lo que se prohibe su reproducción o retransmisión, así como su uso para fines comerciales.


Deja tus comentarios:

Letras de The Beatles
Letras de canciones | Musica Independiente