Enviado por:
isma:_123

Camila, Hay Una Esperanza

Imprimir
Ay una esperanza

      G                        D
E ------------------------------------------------------------
A ---10-------------------------------------------------------
D -----7-9----------------------------------------------------
G --------7-----7--7--7---------------------------------------
B ----------8-----8--8------------------10--------------------
e ------------------------8/10/8-8--7-7-----------------------

            Am7                          C              D
E -------------------------------------------------------------
A -------------------------------------------------------------
D -------------------------------------------------------------
G ----------------------------------------------------14/15-13-
B --------------13-13/15---15-17--------------15/17-19---------
e ---12h14-15-12----------------15----17/19-15-----------------

                G                              D
E -------------------------------------------------------------
A -------------------------------------------------------------
D -----------------------------14-12-12------------------------
G ---12-14-12-14h16-12-14-12-12--------------------------------
B -------------------------------------------------------------
e ------------------------------------------17b-15v~~----------

               Am7                               C        D
E ---------------------------------------------------------------
A ---------------------------------------------------------------
D ---------------------------------------------------------------
G ----------------------------------------------------16h15h13-12
B --------------------------------------------19h17h15-----------
e 19h17h15-19h17h15-19h17h15-19h17h15-19h17h15-------------------

Aviso: Este fichero es trabajo propio de su transcriptor y representa su interpretación personal de la canción. El material contenido en esta página es para exclusivo uso privado, por lo que se prohibe su reproducción o retransmisión, así como su uso para fines comerciales.
comentario del colaborador: hola mellamo ismael este es mi primer acorde trascripcion espero le guste y en saludo a mi novia pau. cuanquier duda este es mi correo [email protected] Dios los bendiga

Califica esta canción


Comentarios en Facebook