Acordes y tablaturas para guitarra

Acordes y Tablaturas
Usuario: Password:

Buscar:
Acordes y Tablaturas >> Letra B >> Acordes de Beethoven >> para elisa
Tablatura de para elisa, Beethoven

Para elisa

Beethoven






  Fur Elise
                                    Beethoven

|---0-------0-------0------------------|----------------------------------|
|-------4-------4-------0---3---1------|-----------------------0----------|
|-----------------------------------2--|-------------------2-----------1--|
|--------------------------------------|---2-----------2-----------2------|
|-----------------------------------0--|-------0---3----------------------|
|--------------------------------------|-----------------------0----------|


|-------------------------------0--|-------0-------0------------------|
|-----------0---1------------------|---4-------4-------0---3---1------|
|-------1--------------------------|-------------------------------2--|
|---2---------------2-------2------|----------------------------------|
|---------------0-------0----------|-------------------------------0--|
|----------------------------------|----------------------------------|


|----------------------------------|---------------------------0------|
|-----------------------0----------|-------1---0-------------------4--|
|-------------------2-----------1--|---------------2------------------|
|---2-----------2-----------2------|---0------------------------------|
|-------0---3----------------------|---------------0-------0----------|
|-----------------------0----------|-------------------0--------------|


|---0-------0----------------------|----------------------------------|
|-------4-------0---3---1----------|-------------------0--------------|
|---------------------------2------|---------------2-----------1------|
|-------------------------------2--|-----------2-----------2-------2--|
|---------------------------0------|---0---3--------------------------|
|----------------------------------|-------------------0--------------|


|---------------------------0------|---0-------0----------------------|
|-------0---1-------------------4--|-------4-------0---3---1----------|
|---1------------------------------|---------------------------2------|
|---------------2-------2----------|-------------------------------2--|
|-----------0-------0--------------|---------------------------0------|
|----------------------------------|----------------------------------|


|----------------------------------|----------------------------------|
|-------------------0--------------|---1---0---------------0---1---3--|
|---------------2-----------1------|-----------2----------------------|
|-----------2-----------2-------0--|----------------------------------|
|---0---3--------------------------|-----------3-------0--------------|
|-------------------0--------------|---------------0------------------|


|---0---------------1---0----------|-----------0----------------------|
|-----------1---------------3------|---0-----------3---1--------------|
|-------0-------0---------------0--|---------------------------2------|
|----------------------------------|-------3---------------2-------2--|
|---3------------------------------|-------------------0--------------|
|---------------------------3------|----------------------------------|


|-------------------0---------------0--|-------0--------------------------|
|---3---1---0--------------------------|----------------------------------|
|--------------------------------------|----------------------------------|
|---------------2-----------2---2------|---2-------1---2---1---2---1---2--|
|--------------------------------------|----------------------------------|
|-----------0-----------0--------------|----------------------------------|


|-------0-------0-------0----------|----------------------------------|
|---4-------4-------4-------0---3--|---1---------------------------0--|
|----------------------------------|-------2-------------------2------|
|----------------------------------|-----------2-----------2----------|
|----------------------------------|-------0-------0---3--------------|
|----------------------------------|-------------------------------0--|


|--------------------------------------|-----------0-------0-------0------|
|------------------------0----1--------|---------------4-------4-------0--|
|---------1---------1------------------|----------------------------------|
|----2---------2-------------------2---|-------2--------------------------|
|-----------------------------0--------|---0------------------------------|
|--------------------------------------|----------------------------------|


|--------------------------------------|------------------------------------------|
|----3----1----------------------------|-------0---------------1---0--------------|
|--------------2-----------------------|---2-----------1---------------2----------|
|-------------------2--------------2---|-----------2-------0----------------------|
|--------------0---------0----3--------|-------------------------------3-------0--|
|--------------------------------------|-------0---------------------------0------|


Que te parecio? Calificalo con estrellas!!

Rating: 8.0/10 (1280 votos)

Este fichero es trabajo propio de su transcriptor y representa su interpretación personal de la canción. El material contenido en esta página es para exclusivo uso privado, por lo que se prohibe su reproducción o retransmisión, así como su uso para fines comerciales.


Deja tus comentarios:
Letras de canciones | Musica Independiente