Enviado por:
guero69

Camila, Solo Para Ti

    Em7       Dadd9     C9        G
E -----------------0-----------------------
B -------3-----------3-------3-------------
G -----0---0-----2-------------0------4----
D ---2---------0-----------2------------5--
A -----------------------3----------5------
E ---------------------------------3-------

Em7                 Dadd9
Eres todo lo que pedía
                C9
Lo que mi alma vacía
           G
Quería sentir

Em7                    Dadd9
Eres lo que tanto esperaba
                    C9
Lo que en sueños buscaba
                   G
Y que en ti descubrí





   1              Dadd9           G2        D/G     Em/G       Am7
E -----3----------------0----------3-----3---2-----2--3---------------
B -1-----1-----1----------3--------3---3-----3---3----3---3-----1---1-
G ---0-------0--------2--------2---0-0-------2-2------0-----0------0--
D ---------2--------0-----------------------------------2---------2---
A -0------------------------------------------------------------0-----
E ---------------------------------3---------2--------0---------------



  Dadd9                 C9
E ------0----------------------------------
B ----------3-------------------3-----3----
G ----2---2----2h0-0-0--------0---------0--
D --0----------------------0h2------2------
A -----------------------3-----------------
E -----------------------------------------


C                    Dadd9
Tú has llegado a encender
                 G[2]
Cada parte de mi alma
     D/G         Em/G
Cada espacio de mi ser
               Am7
Ya no tengo corazón
              Dadd9
Ni ojos para nadie
          C9
Solo para ti



Em/G             D
Eres el amor de mi vida
                C9
El destino lo sabia
                   G
Y hoy te puso ante mí
  Em/G                     D
Y cada vez que miro al pasado
                         C9
Es que entiendo que a tu lado
              G
Siempre pertenecí


 C                    D
Tú has llegado a encender
                  G[2]
Cada parte de mi alma
     D/G          Em/G
Cada espacio de mi ser
                1
Ya no tengo corazón
               D
Ni ojos para nadie

        C9
Solo para ti
        Em/G
Solo para ti
          1
Solo para ti
         Em
Solo para ti

C
Esto es de verdad
G
Lo puedo sentir
C9
Se que mi lugar
         D     C
Es junto a tiiiiiiiiii
Em
uuuuuuuuuu
C9Em/G


Em/G                 D
Eres todo lo que pedía
               C9
Lo que no conocía
                 C9
Y que en ti descubrí..
 
Aviso: Este fichero es trabajo propio de su transcriptor y representa su interpretación personal de la canción. El material contenido en esta página es para exclusivo uso privado, por lo que se prohibe su reproducción o retransmisión, así como su uso para fines comerciales.

Califica esta canción


Comentarios en Facebook