Enviado por: [email protected]
Agrandar Letra
Reducir Letra
Imprimir

Acordes:
½ tono
| +0 |
½ tono
||
Volver

Otras Versiones de No Mires Al Cielo:









Cadena Perpetua, No Mires Al Cielo

 Intro: [G-F# Bm G-D Bm] 

|------------|-----------------|----------------|--------------|
|7--5h7------|-----------------|7--5h7----------|--------------|
|-------6-4--|6--6h7-6-4-4--7--|-------6-4--/7--|6--6h7-6-4-4--|
|------------|-----------------|----------------|--------------|
|------------|-----------------|----------------|--------------|
|------------|-----------------|----------------|--------------|

Bm                            Em
Las nubes querran taparte el Sol 
F#
Para empezar a enfriarte
Bm                                Em
Te quieren borrar la sombra que ayer
Bm               G F# GII F#II
Te hacia gigante

G             A     F#           Bm      A 
No busques calor ahí solo vas a congelarte
G                 F#
El fuego esta en vos... nada mas

                                Em
nos quieren vender la paz y el amor
Solb
y una vida brillante
Bm                            Em
si hay tanto x el  apaguen la voz
Bm
del odio y el hambre G Gb G Gb

G         A         Gb          Bm         A 
Saquemos la fe de ahi de ahi nunca baja nadie
G               GB 
te calma el dolor nada mas

Bm         D           EII
Depende de mi depende vos
           F#II         Bm
Rezar para nada te sirvio
Bm         D           EII
Depende de mi depende vos
           F#II         Bm
Rezar para nada te sirvio
Bm         D           EII
Depende de mi depende vos
           F#II         Bm
Rezar para nada te sirvio
Bm         D           EII
Depende de mi depende vos
           F#II         Bm
Rezar para nada nos sirvio

|------------|-----------------|----------------|--------------|
|7--5h7------|-----------------|7--5h7----------|--------------|
|-------6-4--|6--6h7-6-4-4--7--|-------6-4--/7--|6--6h7-6-4-4--|
|------------|-----------------|----------------|--------------|
|------------|-----------------|----------------|--------------|
|------------|-----------------|----------------|--------------|

G         A         Gb          Bm         A 
Saquemos la fe de ahi de ahi nunca baja nadie
G               GB 
te calma el dolor nada mas

SOLO

|--------------------------|--------------------------|
|--------------------------|--------------------------|
|444444444444-777777666666-|444444444444-333333-------|
|--------------------------|-------------------444444-|
|--------------------------|--------------------------|
|--------------------------|--------------------------|


|777777777777-101010101010999999-|777777777777-666666-------|
|--------------------------------|-------------------777777-|
|--------------------------------|--------------------------|
|--------------------------------|--------------------------|
|--------------------------------|--------------------------|
|--------------------------------|--------------------------|
 
Aviso: Este fichero es trabajo propio de su transcriptor y representa su interpretación personal de la canción. El material contenido en esta página es para exclusivo uso privado, por lo que se prohibe su reproducción o retransmisión, así como su uso para fines comerciales.
comentario del colaborador: ESPERO Q LES GUSTE ES IGUALITA A LA CANCION CUALQUIER COMENTARIO ESCRIBANM BESOS

Califica esta canción


Comentarios en Facebook