Acordes y tablaturas para guitarra

Acordes y Tablaturas
Usuario: Password:

Buscar:
Acordes y Tablaturas >> Letra T >> Acordes de The Police >> Every Breath you Take
Bajo de Every Breath you Take, The Police

Every Breath you Take

The Police






"Every breath you take", The Polce (Sting)
___________________________________________
*Por: Sebas Ar.
*Email msn por cualquier duda o comentario: [email protected]
*Buenos aires, argentina, 2007
*Transcripta de oído.
-Esta tablatura esta hecha para personas que mas o menos ya tienen experiencia (de verdad) en esto de leer tablaturas para que controlen bien los tiempos y no ten los cambios, pero no duden en probarla, queda bien. Igual, es fácil de leer.
-Afinación: Standard (A440, EADG)
-Nota: las palabras que se encuentran en la tablatura NO tienen porque coincidir con el ritmo de la cancion esta como una referencia, no para que empiezen a tocar jsuto cuando aparece tal frase o palabra.
___________________________________________


INTRO:
G|---------------------------------|-----------------------------------------|
D|---------------------------------|-----------------------------------------|
A|---------------------------------|-----------------------------------------|
E|0-3-4-4-x-4-4-4-x-4-4-4-x-4-4--4-|3-1-1-x-1-1-1-x-1-1-1x-1-1-1-1-1-1x-1----|

G|---------------------------------------------------------------------------|
D|---------------------------------------------------------------------------|
A|2-3-4-4-x-4-4-4-x-4-5-6-6-6-x-6-6-6x-6-6-6x-6-6---------------------------|
E|------------------------------------------------6-5-4-4-x-4-4-4x-4-4-4-x-4|

VERSOS:
G|---------------------------------|-----------------------------------------|
D|---------------------------------|-----------------------------------------|
A|---------------------------------|-----------------------------------------|
E|4-4-4-4-x-4-4-4-x-4-4-4-x-4-4--4-|3-1-1-x-1-1-1-x-1-1-1x-1-1-1-1-1-1x-1----|
Every breath you take,  Every move you make

G|---------------------------------------------------------------------------|
D|---------------------------------------------------------------------------|
A|2-3-4-4-x-4-4-4-x-4-5-6-6-6-x-6-6-6x-6-6-6x-6-6---------------------------|
E|------------------------------------------------6-5-4-4-x-4-4-4x-4-4-4-x-4|
Every bond you break,Every step you take, Ill be watching you…

VERSOS:

Every single day Every word you say
Every game you play, Every night you stay, Ill be watching you…

______________________________________________________________________________



ESTRIBILLOS:
G|---------------------------------------------------------------------------|
D|---------------------------------------------------------------------------|
A|---4-4-4-4-4-4-4-4-4-4-4-4-4-4-4-4-4-4-4-4-4-4----------------------------|
E|-----------------------------------------------4-4-4-4-4-4-4-4-4-4-4-4-4-4+|
Oh, cant you see			You belong to me

G|---------------------------------------------------------------------------|
D|---------------------------------------------------------------------------|
A|---------------------------------------------------------------------------|
E|4-4-4-4-4-4-4-4-4-4-4-5-6-6-6-6-6-6-6-6-6-6-6-6-6-6-6-6-6-/-11-11-11-11-11
How my poor heart aches           With every step you take


______________________________________________________________________________


VERSOS:
Every move you make
Every vow you break
Every smile you fake
Every claim you stake
Ill be watching you

______________________________________________________________________________


BREAK:

G|---------------------------------------------------------------------------|
D|---------------------------------------------------------------------------|
A|8-8-8-8-8-8-8-8-8-8-8-8-8-8-8-8-8-8-8-8-8-8-11-11-11-11-11-11-11-11-11-11--|
E|---------------------------------------------------------------------------|
Since youve gone I been lost without a trace

G|---------------------------------------------------------------------------|
D|---------------------------------------------------------------------------|
A|11-11-11-11-11-11-11-11-11-11-11-11-11-11-11-8-8-8-8-8-8-8-8-8-8-8-8-8-8-8-|
E|---------------------------------------------------------------------------|

//repite todo el Bridge//

______________________________________________________________________________


ESTRIBILLOS:
Oh, cant you see
You belong to me
How my poor heart aches
With every breath you take

______________________________________________________________________________


VERSOS:
Every move you make
Every vow you break
Every smile you fake
Every claim you stake
Ill be watching you

Every move you make
Every step you take
Ill be watching you

Ill be watching you
Ill be watching you
Ill be watching you
Ill be watching you...

===============================================================================


Que te parecio? Calificalo con estrellas!!

Rating: 7.3/10 (59 votos)

Este fichero es trabajo propio de su transcriptor y representa su interpretación personal de la canción. El material contenido en esta página es para exclusivo uso privado, por lo que se prohibe su reproducción o retransmisión, así como su uso para fines comerciales.


Deja tus comentarios:

Letras de The Police
Letras de canciones | Musica Independiente