Enviado por:
ger_callejeros_

Callejeros, Día A Día

 A             E                     D
Trato de analizar lo que me está pasando            
A            E                         D
Hay una sola cosa que siento que es verdad
G       F#m          E
Y no me puedo acostumbrar
G            F#m        E
El tiempo me trata de curar 
A           E               D
Pero sigo cantando por eso vivo
A               E                      D
Por ella y por todos los que se me han ido
G          F#m          E
A veces me trato de escapar
G          F#m          E
hacia alguna otra realidad  

A              D           A 
Aguanto día a día lo que me toca
A            D             E
acuesto a mi alma en un rincón
A               D7        D [Dsus4]
descubro que la vida es otra cosa
A                E          D
sin ella, mi alegria se escapó



Volverla a ver, es mucho mas de lo que pido
sus fotos ahora me miran y me ven vacio
quisiera volverla a abrazar
decirle que no me puedo conformar

Pero seguramente me esta mirando
como yo la miraba cuando crecia
canciones le voy a escribir
aliviaran un poco mi vivir

[Estribillo]

Tengo tantas cosas para contarte
que no sé por donde voy a empezar
igual decile a tu mamá
que cuando termine me mando para alla

[Estribillo]

Punteo Final

2|------------------5-3~-2-3-2--------------------|
3|-----7-6-4-2--2/4------------2~-----2-----2-----|x2
4|-5/7----------------------------2-4---2-4---4-2-|

2|----------------------------55-----7~-|
3|-9999-7-6-444-2-4-2--999[6]----5-7----|

2|-7---7---7---7---7-------------------|
3|--7---7---7---7---7------6h7-6-------|
4|---7---7---7---7---7---7-------7-----|
5|--------------------5--7--------7----|
6|-----------------------5----------5~-|


Callejeros.... No OlvIDar SIemPrE rEsIStiR---
PORQUE ESTE SUEÑO ES LA RAZON DE MI VIDA PARA SEGUIR SOÑANDO.... 
Aviso: Este fichero es trabajo propio de su transcriptor y representa su interpretación personal de la canción. El material contenido en esta página es para exclusivo uso privado, por lo que se prohibe su reproducción o retransmisión, así como su uso para fines comerciales.

Califica esta canción


Comentarios en Facebook