Enviado por: xxblackxpinkxx
Agrandar Letra
Reducir Letra
Imprimir


Otras Versiones de Comfortably Numb:









Pink Floyd, Comfortably Numb

'Comfortably Numb', Pink Floyd
____________________________________
*Album: 'The Wall'
*Compuesta por Roger Waters y Dave Gilmour
*Escala: B (casi seguro, pero puede que sea E)
-Por Sebas A., buenos aires, argentina, 2007.
-email msn por cualquier duda: [email protected]
____________________________________

Bm
Hello?
                 A     
Is there anybody in there?
                    G   E
Just nod if you can hear me.
          Bm
Is there anyone at home?

Come on, now,
I hear you're feeling down.
I can ease your pain
Get you on your feet again.

Relax.
I'll need some information first.
Just the basic facts.
Can you show me where it hurts?

D                           A
 There is no pain you are receding
A distant ship's smoke on the horizon.
C                                G
 You are only coming through in waves.
Your lips move but I can't hear what you're saying.

      D                      A
When I was a child I had a FEVER 
My hands felt just like two balloons.
C                                G
Now I've got that feeling once again
I can't explain, you would not understand
                  C
This is not how I am.

A         G                 D
I have become comfortably numb.
(solo)
I have become comfortably numb.

e|--14~~~~--14b15---------------------------------------14b15r14-------------|
B|-----------------15b17----15--14--14----------------------------15b17------|
G|-------------------------------------14------------------------------------|
D|----------------------------------------14--12--12~~~---------------------|
A|---------------------------------------------------------------------------|
E|---------------------------------------------------------------------------|



e----------------------------------------------------------------------------|
B--15--14--------------------------------------------------------------------|
G----------14---------------------12~~--11----------11p9--11--9--7~~-9p7----7|
D--------------14--12--11--9--7-----------14--12------------------------9---|
A----------------------------------------------------------------------------|
E----------------------------------------------------------------------------|
                                              

e------------15-- 14-- 12----------------------------------------------------|
B------------------------ 15-- 12--------------------------------------------|
G--9--11b12---------------------- 12-----------------------------------------|
D------------------------------------ 12~~-- 109~~~1097~~-----------------|
A----------------------------------------------------------------------------|
E----------------------------------------------------------------------------|


e----------------------------------------------------------------------------|
B----------------------------------------------------------------------------|
G--11b12--9b11--9b11r97-----------------------------------------------------|
D-------------------------797----------------------------------------------|
A----------------------------------------------------------------------------|
E----------------------------------------------------------------------------|







O.K.
Just a little pin prick.
There'll be no more aaaaaaaaah!
But you may feel a little sick.
Can you stand up?
I do believe it's working, good.
That'll keep you going through the show
Come on it's time to go.

There is no pain you are receding
A distant ship's smoke on the horizon.
You are only coming through in waves.
Your lips move but I can't hear what you're saying.
When I was a child
I caught a fleeting glimpse
Out of the corner of my eye.
I turned to look but it was gone
I cannot put my finger on it now
The child is grown,
The dream is gone.
but I have become comfortably numb.

|----------------------------------------------
|----------------------------------------------
|-7---9-9b(11)>>>>>>-9b(11)>>>r9p7-7-9---7---7-
|---------------------------------9-------9----
|----------------------------------------------
|----------------------------------------------

|------------------------------------------10------------------------
|------10----10-----12-12b(15)>>>r12p10-12---------------------------
|-11------11----------------------------------------7-9-9b(10)r9p7---
|------------------------------------------------------------------9-
|--------------------------------------------------------------------
|--------------------------------------------------------------------

|---------------------------------------------
|-10p7---7------------------------------------
|------9---9-7--------------------7-----------
|--------------9----------7-7---9-------9p7-9-
|----------------------/9---------------------
|---------------------------------------------

|-7---9---9b(10)>>>>>--7----7-7-----------------------------------------------------
|-7----------------------10-----------10p7---7---10p7---7---------------------------
|------------------------------------------9----------9---9-7---9-7-----------------
|-------------------------------------------------------------9-----9-7-------------
|-----------------------------------------------------------------------9-8-7/5---5-
|-------------------------------------------------------------------------------7---

|-----------------------7---------------------------------------------------------
|-------------------------10p7-----7----------------------------------------------
|-7-7-7--------9b(11)----------9-9---9p7--9-7-------------------------------------
|---------------------------------------9-----9p7---------------------------7-7-7-
|-------------------------------------------------9-97-5-7p5--5---7-----/9-------
|------------------------------------------------------------7-------5h7----------

|-------------------7------------------------------7------------------------------------
|-----------------7---10--------7----------------7---10p7---7---------------------------
|----7---7-9b(11)--------9b(11)---7---9---9b(11)----------9---9-7---9-7-----------------
|-9p7--9----------------------------------------------------------9-----9-7-------------
|---------------------------------------------------------------------------9-8-7/5---5-
|-----------------------------------------------------------------------------------7---

|----------------------------------------------------------------------7------7-
|-7---------------7-------------7-------7--------------------------------10p7---
|-7-------------7-7-------------7-------7----9b(11)>>>r9p7---7-9----------------
|-7---9---------7-7---9---------7---9-------9--------------9--------------------
|-------------------------------------------------------------------------------
|-------------------------------------------------------------------------------
 
                                                                  (P.M.)
|-------------------------------------------------------------------------------------
|------------10p7---7---------------------------------------------------7-------7-----
|-9b(11)----------9---9-7-9p7---7---------------------------7-----------7-----x-7-----
|-----------------------------9---9p7-9p7---7-----------9---------(999)-7-----x-7---7-
|-----------------------------------------9---9-8-7/5---------------------------------
|-----------------------------------------------------7-------------------------------

|--------------------------------------------------------------------------------
|-x---7-------7---7-----------7---7-----------7---7------7--7--7---x-7---7-7-7-7-
|-x---7-------7---7-----------7---7-----------7---7------7--7--7---x-7---7-7-7-7-
|---------9-----------9---9-----------9---9-----------9--------------------------
|--------------------------------------------------------------------------------
|--------------------------------------------------------------------------------

|-----------------19---21-21b(22)---21pb(22)---21---21pb(22)r21--21pb(22)-21b(22)r21-19h20p19-
|-17-17b(19)>>>>>-----------------------------------------------------------------------------
|---------------------------------------------------------------------------------------------
|---------------------------------------------------------------------------------------------
|---------------------------------------------------------------------------------------------
|---------------------------------------------------------------------------------------------

|-----------------------------------------------------------------
|-/17-17-17b(19)---17b(19)---17-15-17-----15--17-17b(19)r17p15----
|--------------------------------------------------------------16-
|-----------------------------------------------------------------
|-----------------------------------------------------------------
|-----------------------------------------------------------------

|----------------------
|-------------------12-
|-/14-16---------------
|--------14---12-------
|----------------14----
|----------------------
Aviso: Este fichero es trabajo propio de su transcriptor y representa su interpretación personal de la canción. El material contenido en esta página es para exclusivo uso privado, por lo que se prohibe su reproducción o retransmisión, así como su uso para fines comerciales.

Califica esta canción


Comentarios en Facebook