Acordes y tablaturas para guitarra

Acordes y Tablaturas
Usuario: Password:

Buscar:
Acordes y Tablaturas >> Letra M >> Acordes de Megadeth >> trust
Tablatura de trust, Megadeth

Trust

Megadeth






Intro (fades)

e|---------------------------------------------------------------B|----------0------0------3--------------------------------------
G|---0------0------0------2--------------------------------------
D|---2------2------2------4--------------------------------------
A|---2------3------4------5--------------------------------------
E|---0-----------------------------------------------------------

Main Riff

e|-----------------------------------------------------------
B|-----------------------------------------------------------
G|-----------------------------------------------------------
D|-----------------------------------------------------------
A|-------7-------------7--------------7-----------------7----
E|-----0---8-7-------0---8----7----0----8-7--------0-----8-7-

---------------------------|
---------------------------|
---------------------------|
---------------------------|
-------7-----------5-------|
----0----6-5----0---0--6/8-|

Pre-Verse Riff

e|---------------------------------------------------------------
B|---------------------------------------------------------------
G|---9---------------5------------------2------------------------
D|---9---------------5------------------2----------------3-------
A|---7---------------3------------------0----------------3-------
E|------0-0-0-0-0-0------0-0-0-0-0-0-------0-0-0-0-0-0---1---0-0-0-0-0----
........... ........... ........... .........


-----------------------------------------------------------|
-----------------------------------------------------------|
---9-----------------5-------4-------2-----------------3---|
---9-----------------3-------4-------2-----------------3---|
---7-----------------3-------2-------0-----------------3---|
-------0-0-0-0-0-0------0-0-----0-0-----0-0-0-0-0-0----1---|
........... ... ... ...........

Pre-Verse -> Verse Fill

e|------------------|
B|------------------|
G|------------------|
D|--3--3-3-3-3-3-3--|
A|--3--3-3-3-3-3-3--|
E|--1--1-1-1-1-1-1--|
........... 


Acoustic part (bridge)

e|-------------hp-----------------------------------3---3-5------
B|---5-----5h6-565-------6-----4-------4----3-----3---3----------
G|-------5--------5--------5-----5---5----------3----------------
D|-----7------------7--------7-----3----------5------------------
A|---------------------------------------------------------------
E|--------------------------------------------------------------

---6---------------------------0------------------s--------------
-----6---6-p-----------------6---6--------------5-8-5------------
-------6---65---6----------5-------5----------3-------6----------
--------------8---8------7-----------7------5-----------7--------
-----------------------0------------------0----------------------
-----------------------------------------------------------------

Acoustic -> Solo Bridge

e|---------------------------------------------------------------
B|---------------------------------------------------------------
G|----------------------0-------0-----2-------------------------2
D|------0-------0-----0-------0-------0-------------------------2
A|----0-------0-----1-----1-0---------0--0000000000000000000000-0
E|---1-----1-0-----0---------------3b----------------------------
............................. ......................


I didnt have time to figure the solo out myself yet so heres the closest solo transcription i could find.
use it if you will :) sorry i cant remember the name of the guy who made the transcription =

Solo

e|----------------|----------------|-----------------|----------
B|----------------|-11b--v---------|-----------------|-12b--v---
G|-9---9v-----9---|----------------|-9---9v------9---|----------
D|--------------9-|-------------s9-|---------------9-|----------9
A|-----------------|----------------|-----------------|----------
e|-----------------|----------------|-----------------|----------

e|-----------------|----------------|-----------------|----------
B|-----------------|-16-17b-----v---|-17rb-b---17b--s-|----------
G|--9v--9v------16-|----------------|-----------------|-2b-2b-2b-rb-b-v--|
D|----------9s17---|----------------|-----------------|----------
A|-----------------|----------------|-----------------|----------
E|-----------------|----------------|-----------------|----------

h p
e|-----------15-------|-18b-18v18b--p17-15-|---------p---151915--15-19--|
B|----17-17v----17----|--------------------|-17v-17--1719------19
G|-s16--------------16-|--------------------|-------16-----------
D|---------------------|--------------------|--------------------
A|---------------------|--------------------|--------------------
E|---------------------|--------------------|--------------------


e|-19b-v---s19-22-|-22b-22-22b22b22b22b22b-22-22b-|-22b22b22v22v22v22s---|
B|----------------|-------------------------------|-------22v22v22v22s-5s|
G|----------------|-------------------------------|--------------
D|----------------|-------------------------------|--------------
A|----------------|-------------------------------|--------------
E|----------------|-------------------------------|--------------


e|-12-11----------11-12-11-------------12-14p12----------------12
B|-------12p11-12----------12----12p15----------15-12----12h15---
G|----------------------------14----------------------14---------
D|---------------------------------------------------------------
A|---------------------------------------------------------------
E|---------------------------------------------------------------


e|-14p12-------------15------------------------------------------
B|-------15-12----12----15-12----12-15p12h15p12----12------------
G|-------------14-------------14----------------14----14p12------
D|----------------------------------------------------------14-12
A|---------------------------------------------------------------
E|---------------------------------------------------------------


Que te parecio? Calificalo con estrellas!!

Rating: 8.0/10 (248 votos)

Este fichero es trabajo propio de su transcriptor y representa su interpretación personal de la canción. El material contenido en esta página es para exclusivo uso privado, por lo que se prohibe su reproducción o retransmisión, así como su uso para fines comerciales.


Comentario de alescito2492
porfavor si hay errores marquenlos y eszpero k les gust´
Deja tus comentarios:
Letras de canciones | Musica Independiente