Enviado por: The Pretender
Agrandar Letra
Reducir Letra
Imprimir






White Stripes, Seven Nation Army

|-----------------------------|
|-----------------------------|
|-----------------------------| x12
|-----------------------------|
|-----------------------------|
|---7---7--10--7--5--3--2-----|

|-----------------------------|
|-----------------------------|
|-----------------------------|
|-----------------------------|
|---0-0-0-0-0-0-1-1-1-1-1-1---|
|---0-0-0-0-0-0-1-1-1-1-1-1---|

|------------------------------------------------------|
|------------------------------------------------------|
|------------------------------------------------------|
|------------------------------------------------------|
|------------------------------------------------------|
|---9---9--12--9--7--5--4---9---9--12--9--7--5--7--5--4|

|------------------------------------------------------|
|------------------------------------------------------|
|------------------------------------------------------|
|------------------------------------------------------|
|------------------------------------------------------|
|---9---9--12--9--7--5--4---9---9--12--9--7--5--7--5--4|

|-----------------------------|
|-----------------------------|
|-----------------------------|
|-----------------------------|
|---0-0-0-0-0-0-1-1-1-1-1-1---|
|---0-0-0-0-0-0-1-1-1-1-1-1---|

|-----------------------------|
|-----------------------------|
|-----------------------------| x12
|-----------------------------|
|-----------------------------|
|---7---7--10--7--5--3--2-----|

|-----------------------------|
|-----------------------------|
|-----------------------------|
|-----------------------------|
|---0-0-0-0-0-0-1-1-1-1-1-1---|
|---0-0-0-0-0-0-1-1-1-1-1-1---|

|------------------------------------------------------|
|------------------------------------------------------|
|------------------------------------------------------|
|------------------------------------------------------|
|------------------------------------------------------|
|---9---9--12--9--7--5--4---9---9--12--9--7--5--7--5--4|

|------------------------------------------------------|
|------------------------------------------------------|
|------------------------------------------------------|
|------------------------------------------------------|
|------------------------------------------------------|
|---9---9--12--9--7--5--4---9---9--12--9--7--5--7--5--4|

|---9---9--12--9--7--5--4---9---9--12--9--7--5--7--5--4|
|------------------------------------------------------|
|------------------------------------------------------|
|------------------------------------------------------|
|------------------------------------------------------|
|------------------------------------------------------|

|---9---9--12--9--7--5--4---9---9--12--9--7--5--7--5--4|
|------------------------------------------------------|
|------------------------------------------------------|
|------------------------------------------------------|
|------------------------------------------------------|
|------------------------------------------------------|

|-----------------------------|
|-----------------------------|
|-----------------------------| x12
|-----------------------------|
|-----------------------------|
|---7---7--10--7--5--3--2-----|

|-----------------------------|
|-----------------------------|
|-----------------------------|
|-----------------------------|
|---0-0-0-0-0-0-1-1-1-1-1-1---|
|---0-0-0-0-0-0-1-1-1-1-1-1---|


|------------------------------------------------------|
|------------------------------------------------------|
|------------------------------------------------------|
|------------------------------------------------------|
|------------------------------------------------------|
|---9---9--12--9--7--5--4---9---9--12--9--7--5--7--5--4|

|------------------------------------------------------|
|------------------------------------------------------|
|------------------------------------------------------|
|------------------------------------------------------|
|------------------------------------------------------|
|---9---9--12--9--7--5--4---9---9--12--9--7--5--7--5--4|
Aviso: Este fichero es trabajo propio de su transcriptor y representa su interpretación personal de la canción. El material contenido en esta página es para exclusivo uso privado, por lo que se prohibe su reproducción o retransmisión, así como su uso para fines comerciales.

Califica esta canción


Comentarios en Facebook