Acordes y tablaturas para guitarra

Acordes y Tablaturas
Usuario: Password:

Buscar:
Acordes y Tablaturas >> Letra G >> Acordes de Guns N´ Roses >> Estranged
Tablatura de Estranged, Guns N´ Roses

Estranged

Guns N´ Roses






Chords used:

Bb      (x1333x)
C       (332010)
G       (320033)
Ebmaj   (xx103x)
F6/9    (xx303x)
G5      (3x003x)
F       (133211)
Gm      (133311)
C5      (x133xx)
Eb5     (x688xx)
Bb5     (x133xx)
A5      (577xxx)
F5      (133xxx)
D5      (x577xx)

Gm7
When your talkin to your-self

C
and no-body's home

Gm7
you can fool your-self

C
you came in this world alone  alone

          Gm7                                         C
-----||--------------------------13b--13rb~--------------------13----------||
-----||-----11--15b--15rb~---11-------------15--13b--13~--13hb-----13rbsl-||
-12b-||---12---------------12----------------------------------------------||   REPEAT
-----||--------------------------------------------------------------------||
-----||--------------------------------------------------------------------||
-----||--------------------------------------------------------------------||


                      Bb                         C                      G
-------------------------------------13-----------------------------------------
-13b--13p11--13p11----11~-----13hb--------13rb--13~~~--------------12-(12)bbbbb-
-------------------12-----------------------------------------------------------
--------------------------------------------------------------------------------
--------------------------------------------------------------------------------
--------------------------------------------------------------------------------
                        So nobody ever told you baby, how it was gonna be_______


        Bb                              C                                  G
------------------------------13--------------------------------------------------
-13p12--11~-------------13hb-----13rb--13~~~-------------------------12-(12)bbbbb-
----------------------------------------------------------------------------------
----------------------------------------------------------------------------------
----------------------------------------------------------------------------------
----------------------------------------------------------------------------------
            And what'll happen to you baby, guess we'll have to wait and see_________


                                   G5       D5   C5              Eb5
--------------------------------||----------------------------------------
-----11~~------------(11)-------||----------15~--------13--13hb--13rb-----
--------------------------------||-------12---------12--------------------
--------------------------------||----12---------10-----------------------
--------------------------------||-10-------------------------------------
--------------------------------||----------------------------------------


   F5    G5          D5   C5         Eb5          F5     G5            Eb5
--------------------------------------------------------------------------
-13p12--13p12--------15~--------13--13hb--13rb---13p12--13p12-----15~--13~
---------------12------------12------------------------------12-----------
------------------12------10-----------------------------------12---------
--------------------------------------------------------------------------
--------------------------------------------------------------------------

   G5               Eb5         F5   G5                          F6/9
-------------------------------------||-------------------------------------||
---13b--13hb--13rb--11~--11p10-------||-------------------------------------||
--------------------------------12~~-||-(12)------------(12)------------(12)||
-------------------------------------||-------------------------------------||
-------------------------------------||-------------------------------------||
-------------------------------------||-------------------------------------||
                                      Old at heart, but I'm only twenty eight

        EbMaj7            D   C         Bb A G
------------------------------------------------------||
------------------------------------------------------||
---(12)-----------------(12)---------------------(12)-||
------------------------------------------------------||
------------------------------------------------------||
------------------------------------------------------||
And I'm much to young to let love break my heart______

G5                                F6/9
-----------------------------------------------||
-----------------------------------------------||
-----------(12)--------------------12/14-(14)~-||
-----------------------------------------------||
-----------------------------------------------||
-----------------------------------------------||
Young at heart, but it's getting much to late

        EbMaj7        D    C     Bb A G G5
--------------------------------------------||
---13~----------11--10-----108----8~-------||
--------------------------------------------||
--------------------------------------------||
--------------------------------------------||
--------------------------------------------||
        To find ourselves so far apart_____

F                                           Gm
I don't know how your supposed to find me lately

F                               Gm
And what more could you ask from me__________

F                                  Gm
How could you say that i never needed you

EbMaj7                  F6/9
When you took everything, said you took every thing from me_________


 G5       D5   C5               Eb5     F5      G5        D5   C5    
--------------------------------------------------------------------------
----------15~--------13--13hb--13rb---13p12--13p12--------15~--------13---
-------12---------12--------------------------------12------------12------
----12---------10--------------------------------------12------10---------
-10-----------------------------------------------------------------------
--------------------------------------------------------------------------

  Eb5           F5     G5             Eb5          Eb5        F5
------------------------------------------13------------------------||
-13hb--13rb---13p12--13p12-------15~--13~-----13b--11~--11p10-------||
---------------------------12---------------------------------12~~--||
------------------------------12------------------------------------||
--------------------------------------------------------------------||
--------------------------------------------------------------------||

G5                              F6/9
||-----------------------------------------||
||-----------------------------------------||
||-(12)------------(12)------------(12)----||
||-----------------------------------------||
||-----------------------------------------||
||-----------------------------------------||
young at heart, and it gets so hard to wait

        EbMaj7            D   C         Bb A G
------------------------------------------------||
------------------------------------------------||
---(12)-----------------(12)---------------(12)-||
------------------------------------------------||
------------------------------------------------||
------------------------------------------------||
When no-one I know can seem to help me now______

G5                                F6/9
-------------------------------------||
-------------------------------------||
-----------(12)----------12/14-(14)~-||
-------------------------------------||
-------------------------------------||
-------------------------------------||
Old at heart, but I musn't hesitate

EbMaj7        D    C     Bb A G G5
--------------------------------------------||
---13~----------11--10-----108----8~-------||
--------------------------------------------||
--------------------------------------------||
--------------------------------------------||
--------------------------------------------||
        If I'm to find my own way out_____

Gm7
Still talkin to my-self

                C
and no-body's home      Alone


          Gm7                                         C
-----||--------------------------13b--13rb~--------------------13--------||
-----||-----11--15b--15rb~---11-------------15--13b--13~--13hb-----13rb--||
-12b-||---12---------------12--------------------------------------------||
-----||------------------------------------------------------------------||
-----||------------------------------------------------------------------||
-----||------------------------------------------------------------------||



--------------------------||
-13b--13p11--13p11----11~-||
-------------------12-----||
--------------------------||
--------------------------||
--------------------------||



Bb                      C                      G
So nobody ever told us baby, how it was gonna be_______

Bb                         C                                  G          C
So what'll happen to us baby, guess we'll have to wait and see_________

Keyboards

 C5           Eb5                    C5            Eb5
-----------------------------------------------------------------------------------------||
----------------------------4-----4p3-------3-------------------------4-----4p3--4p3-----||
--------5----------------3------------5p3---------5----------------3-----------------5p3-||
-----5---------------3h5-----------------------5---------------3h5-----------------------||
--3-------3--5----6-----------------------------------3-5---6----------------------------||
-----------------------------------------------------------------------------------------||

 C5           Eb5                   Bb      F
------------------------------------------||-----3--2----------0--||
-3--------------------------4--3--------3-||----------3--------1--||
-------5-----------------3--------5--3----||------------2------0--||
----5---------------3--5------------------||-------------------2--||
-----------3-5---6------------------------||-------------------3--||
------------------------------------------||----------------------||


    C                             G                           F
||--0------------------------|---------------------------|---------------------||
||--1----------------1-------|----3----------------------|----1-------------1--||
||--0--------------0---------|----0-----------------0----|----2-----------2----||               REPEAT 6 TIMES
||--2------------2-----------|----0---------------0------|----3---------3------||
||--3----------3-------------|----2-------------2--------|----3-------3--------||
||---------------------------|----3-----------3----------|---------------------||
        When i find all of the reasons, maybe I'll find another way, find another day

G                       F               C
With all the changing seasons, of my life

                   G             F
Maybe I'll get it right next time

C                          G                            F
And now that you've been broken down, got your head out of the clouds

                  C                             G                             F
You're back down on the ground, and you don't talk so loud, and you don't walk so proud

     C              G   F
Any more, and what for


  C             Am                     C            F
--------------------------------------------------------------------------
---------------------------------------8----------------------------------
--5~~------5h7--5--5b--5~~------5h7--5---7b--7~---5h7p5--4--5--4--5-------
-------5h7------------------5h7-------------------------------------------
--------------------------------------------------------------------------
--------------------------------------------------------------------------


--------------------------------------------------------------------------
---------------------------------------------------------------8---8--10--
--4h5h7--4--5--4-------------------------------5---5~--7~--7/9---9--------
-----------------5--3----------3---3~--5~--5/7---7------------------------
----------------------5--3~--5--------------------------------------------
--------------------------------------------------------------------------

  C                      G                               F
--------------------------------------------------------15----------------
-13~~--------13h15--13--13b--13~~--------13h15--13--14B----13~--13--15----
-------12h14-----------------------12h14----------------------------------
--------------------------------------------------------------------------
--------------------------------------------------------------------------
--------------------------------------------------------------------------


-15--13----15--13--15--13h15p13--12--13--12h13p12-------------------------
--------13----------------------------------------15--17--15h17p15--15b---
--------------------------------------------------------------------------
--------------------------------------------------------------------------
--------------------------------------------------------------------------
--------------------------------------------------------------------------

                       C
-----------------------------||
-15h17-16h18--18b-----17~~---||
-------------------17--------||
-----------------------------||
-----------------------------||
-----------------------------||

C                         G                        F
Well I jumped in to the river, too many times to make it home,

        C                               G               F
I'm out here on my own, and drifting all alone, if it dosn't show

        C                           G   F
Give it time, to read between the lines


A5                G5               F5
Cause I see the storm is getting closer

A5        G5                F5
and the waves they get so high

A5              G5                  F5
Seems everything we've ever knowns here

A5          G5              F5  E  D5  C5  Bb5  A  G5  C
Why must it drift away and die_______________________________ 


using volume control on guitar for the effect

        F5
--------------------------------------------------------------------15----
-13b--13b--13b-----------------15b----13h15--13~--(13)--15p13----13----15b
----------------12b--12b--12b---------------------------------14----------
--------------------------------------------------------------------------
--------------------------------------------------------------------------
--------------------------------------------------------------------------

                           C5                            G5
-----15-----------------------18----------18-----------------18-----------
-15b----15b--13--15--13--18hb----18rb--18----18b--16----18hb----18rb--18--
-----------------------------------------------------17-------------------
--------------------------------------------------------------------------
--------------------------------------------------------------------------
--------------------------------------------------------------------------

                F5                            C5         G5             C5
-18------------------------------------------------------------------------
----18b--16----15b---------------------------------------------------------
------------17------17--17~---15-------------------------------------------
----------------------------------17--15--13------15b---------------13--13b
----------------------------------------------15~-----15------13h15--------
---------------------------------------------------------15~---------------

                G5                                              F5
----------------------------------------------------------------15----18-
-------------------------------------------15h16p15----15-16-18----18----
------15----------------15h17-17----15-17-----------17-------------------
13h15----15--13~--15h17----------17--------------------------------------
-------------------------------------------------------------------------
-------------------------------------------------------------------------

                                                                     
----15-18----------18----------------------------------------------------
-18--------18-18hb----18rb--15h18p15------15-----------------------------
---------------------------------------17----15h17p15----15--------------
------------------------------------------------------17---17--15----15--
------------------------------------------------------------------17-----
-------------------------------------------------------------------------

                                             C5
-----------------------------------------------------||
-----------------------------------------------------||
-----------------------------------------------------||
--------------15-13----13-13b-------15fb----(15)~~---||
-17-15-13--15-------15--------15p13------------------||
-----------------------------------------------------||


C                             G                              F
I'll never find anyone to replace you, Guess I'll have to make it through

        C              G        F       A G E C C5 B A5
This time, oh this time, without you

                G5              F5      G5
I knew the storm was getting closer

A5              G5              F5      G5
and all my friends said i was high

A5           G5                         F5   G5
But everything we've ever knowns here

A5         G5           F5  E  D5  C5  A  G  E  F5  C
I never wanted it to die_____________________________
_____________________________________________________


Que te parecio? Calificalo con estrellas!!

Rating: 8.6/10 (358 votos)

Este fichero es trabajo propio de su transcriptor y representa su interpretación personal de la canción. El material contenido en esta página es para exclusivo uso privado, por lo que se prohibe su reproducción o retransmisión, así como su uso para fines comerciales.


Deja tus comentarios:

Letras de Guns N´ Roses
Letras de canciones | Musica Independiente