Acordes y tablaturas para guitarra

Acordes y Tablaturas
Usuario: Password:

Buscar:
Acordes y Tablaturas >> Letra P >> Acordes de Pink Floyd >> Another brick in the wall
Acordes de Another brick in the wall, Pink Floyd

Another brick in the wall

Pink Floyd






'Another brick in the wall (Parte 2)', Pink Floyd
_______________________________________________________
*Album: 'The Wall'
*Por Seba A. (email msn por cualquier duda: [email protected])
*buenos aires, argentina, 2007.
*Acordes y base:
_______________________________________________________

GUITARRA 1:
Dm:
e|1-
B|3-
G|2-
D|0-
A|x-
E|x-

GUITARRA 2:
e|-5-5-5-5-5-5
B|-5-6-6-6-5-5
G|-5-5-5-5-5-5
D|-5-7-7-7-5-5
A|-x-x-x-x----
E|-x-x-x-x----

Dm
'We don't need no education
We don’t need no thought control
No dark sarcasm in the classroom
Teachers leave them kids alone'

_________________________________________________________
GUITARRA 1:
e|2-----2----2--2-2-2------
B|2-----2----2--2-2-2------
G|0-----0----0--0-0-0------
D|0-----0----0--0-0-0------
A|2-----2----2--2-2-2------
E|3-----3----3--3-3-3------

G
Hey! Teacher! Leave them kids alone!

/-----------------------------------------------\
INTERVALO:
GUITARRA 1:
Dm:
e|1-
B|3-
G|2-
D|0-
A|x-
E|x-
\-----------------------------------------------/
_________________________________________________________
GUITARRA 1:
  F         C        Dm
e|1---------0--------1v--------
B|1---------1--------3v--------
G|2---------0--------2v--------
D|x---------x--------x---------
A|x---------x--------x---------
E|x---------x--------x---------

F                     C                      Dm
All in all it's just another brick in the wall.



/-----------------------------------------------\
INTERVALO:
GUITARRA 1:
Dm:
e|1-
B|3-
G|2-
D|0-
A|x-
E|x-
\-----------------------------------------------/




GUITARRA 1:
  F         C        Dm
e|1---------0--------1v--------
B|1---------1--------3v--------
G|2---------0--------2v--------
D|x---------x--------x---------
A|x---------x--------x---------
E|x---------x--------x---------

F                     C                      Dm
All in all it's just another brick in the wall.


Que te parecio? Calificalo con estrellas!!

Rating: 6.3/10 (334 votos)

Este fichero es trabajo propio de su transcriptor y representa su interpretación personal de la canción. El material contenido en esta página es para exclusivo uso privado, por lo que se prohibe su reproducción o retransmisión, así como su uso para fines comerciales.


Deja tus comentarios:

Letras de Pink Floyd
Letras de canciones | Musica Independiente