Acordes y tablaturas para guitarra

Acordes y Tablaturas
Usuario: Password:

Buscar:
Acordes y Tablaturas >> Letra A >> Acordes de AC/DC >> Whole Lotta Rosie
Tablatura de Whole Lotta Rosie, AC/DC

Whole Lotta Rosie

AC/DC






|----------------|----------------|----------------|----------------|6 times
|----------------|----------------|----------------|----------------|
|--2-5---7---5-2-|----------------|--2-5---7---5-2-|----------------|
|--2-5---7---5-2-|----------------|--2-5---7---5-2-|----------------|
|--0-3-0-5-0-3-0-|----------------|--0-3-0-5-0-3-0-|----------------|
|----------------|----------------|----------------|----------------|

|----------------|----------------||-----------------|---------------|7x's
|----------------|----------------||-----------------|---------------|
|----------------|--2-5---7---5-2-||---2-----2-----2-|---------------|
|----------------|--2-5---7---5-2-||---2-----2-----2-|---------------|
|----------------|--0-3-0-5-0-3-0-||-0-0-0-0-0-0-0-0-|-0-3-0-5-0-3-0-|
|----------------|----------------||-----------------|---------------|

|--------------------|----------------|----------------|----------------|
|--------------------|----------------|----------------|-3-----3-----3--|
|-2-2-2--2--2-2-2--2-|----------------|----------------|-2-----2-----2--|
|-2-2-2--2--2-2-2--2-|-3----3----3----|----------------|-0-----0-----0--|
|-0-0-0--0--0-0-0--0-|-3----3----3----|----------------|----------------|
|--------------------|-1----1----1----|----------------|----------------|

|-----------------------|------------------------3-|-----------------------|
|-----------------------|------------------------3-|-----------------------|
|-----------------------|-2-------------------2--0-|-----------------------|
|-----------------------|-2-------------------2--0-|-----------------------|
|-----------------------|-0-------------------0----|-----------------------|
|-----------------------|------------------------3-|-----------------------|

|---------------------3-|--------------------------|---------------------3-|
|---------------------3-|--------------------------|---------------------3-|
|-2----------------2--0-|--------------------------|-2----------------2--0-|
|-2----------------0--0-|--------------------------|-2----------------2--0-|
|-0----------------0----|--------------------------|-0----------------0----|
|---------------------3-|--------------------------|---------------------3-|

|-----------------------|-------------------------|-----------------------|
|-----------------------|--3--------3--------3----|--3-------3-------3----|
|-----------------------|--0--------0--------0----|--0-------0-------0----|
|-----------------------|--0--------0--------0----|--0-------0-------0----|
|-----------------------|-------------------------|-----------------------|
|-----------------------|--3--------2--------3----|--2-------3-------4----|

|--------------------|--------------|--------------------|--------------|7x
|--------------------|--------------|--------------------|--------------|
|----2---2---2-----2-|--------------|----2---2---2-----2-|--------------|
|----2---2---2-----2-|--------------|----2---2---2-----2-|--------------|
|--0-0-0-0-0-0-0-0-0-|--0-3-0-5-3-0-|--0-0-0-0-0-0-0-0-0-|--0-3-0-5-3-0-|
|--------------------|--------------|--------------------|--------------|

GUITAR SOLO
                                    ~~~~~~~~~~~~
|----------------------------|--------------------------------------------|
|----------------------------|--------------------------------------------|
|--5-5555-5-5-5-5-5-5-5-5-5-5|-5-----------------5-5-5-5-5-5-5-5555555555-|
|----------------------------|----7--------------------------------------|
|----------------------------|--------------------------------------------|
|----------------------------|--------------------------------------------|

   ~~~~~~  ~~~~~~~~~~~~
|-----------------------------|---------------------------|
|-----------------------------|---------------------------|
|-------------------------5-5-|-5-5--5--5-5---5-5--5--5-5-|
|-7-------7------------------|---------------------------|
|-----------------------------|---------------------------|
|-----------------------------|---------------------------|

|------------------------------|-------------------------------|
|------------------------------|-----------------------8-------|
|---5-5--5--5-5-5-5-5-5-54(5)-|---7(9)-----------------7(9)-|
|------------------------------|-------------------------------|
|------------------------------|-------------------------------|
|------------------------------|-------------------------------|

    ~~~~~~~~~~~~~~~~                             ~~~~~~~
|----------------------5-----|----------------------------5----|
|-------------------------8--|-5-----------------------------8-|
|-7-------------------------|---7--5-7-5---7---5--------------|
|----------------------------|------------7---7----------------|
|----------------------------|---------------------------------|
|----------------------------|---------------------------------|

                             ~~~~~~
|-----------------------------------------------|
|---5--------------------------------------8(10)|
|------7--5--7--5-----7-----5-----5-----5-------|
|------------------7-----7----------------------|
|-----------------------------------------------|
|-----------------------------------------------|

      HOLD BEND FOR WHOLE BAR!
|--------------------------------------------------------------------------|
|-----(10)-(10)-(10)-(10)-(10)-(10)-(10)-(10)-(10)-(10)-(10)-(10)-(10)-(10)|
|--------------------------------------------------------------------------|
|--------------------------------------------------------------------------|
|--------------------------------------------------------------------------|
|--------------------------------------------------------------------------|
|--------------------------------------------------------------------------|

       AND THIS ONE TOO!                  ~~~~~~~~~~~~~
|-------------------------------------------------------7--8-|
|--(10)-(10)-(10)-(10)-(10)-(10)-(10)------------------------|
|------------------------------------------------------------|
|------------------------------------------------------------|
|------------------------------------------------------------|
|------------------------------------------------------------|

|---7--5--7--8--7--5--7--8--7--5--7--8--7--5--7--8--|
|---------------------------------------------------|
|---------------------------------------------------|
|---------------------------------------------------|
|---------------------------------------------------|
|---------------------------------------------------|

|---7--5--7--8--7--5--7--8--7--5--7--8--10--8--7----|
|-------------------------------------------------8-|
|---------------------------------------------------|
|---------------------------------------------------|
|---------------------------------------------------|
|---------------------------------------------------|

|--5------------------------------------------------|
|----5--7--5--7--5----------------------------------|
|-------------------7--5------------5---------------|
|-------------------------7------5-------7----------|
|---------------------------------------------------|
|---------------------------------------------------|

|---------------------------------------------|---------------------------|
|--------------------------------------13--15-|-(17)---------15(17)------|
|---------------------------------------------|---------------------------|
|-----------------7--------------------------|---------------------------|
|-------------/9------------------------------|---------------------------|
|---------------------------------------------|---------------------------|

|----------5------8----8----7-|----5-----7-------5---------5---------------|
|-----/7----------------------|-----------------------8-------7--8/7/5-7/5-|
|-----------------------------|--------------------------------------------|
|-----------------------------|--------------------------------------------|
|-----------------------------|--------------------------------------------|
|-----------------------------|--------------------------------------------|

  ~~~~~~~~~~~~~~~~~~~~~~~~~~~~~~~~~~~~~
|------------------------------------------------|
|----------------------------------------/9-----|
|------------------------------------------------|
|------------------------------------------------|
|------------------------------------------------|
|------------------------------------------------|

                repeat bar below once                   ~~~~~~~~
|--------------------------------------|-----------------------------------|
|--------------------------------------|-----------------------------------|
|--------5---------7---------5---------|----2---5-------7-------5---2------|
|--/7---------7---------7---------7----|----2---5-------7-------5---2------|
|--------------------------------------|----0---3---0---5---0---3---0------|
|--------------------------------------|-----------------------------------|

                                ~~~~~~                            ~~~~~~~
|---------------------------------|-----------------------------------|
|---------------------------------|-----------------------------------|
|----------5-------7-------5------|--------5-------7-------5----------|
|-----/7-------7-------7-------7--|----7-------7-------7---------7----|
|---------------------------------|-----------------------------------|
|---------------------------------|-----------------------------------|

|-----------------------------|-----------------------------------|
|-----------------------------|-----------------7-----------------|
|-------5-------7-------5-----|--------5--------7-------5---------|
|---7-------7-------7-------7-|---7--------7--------7--------7----|
|-----------------------------|-----------------------------------|
|-----------------------------|-----------------------------------|

|-----------------------------------|-----------------------------------|
|-----------------7-----------------|----------------7------------------|
|--------5--------7-------5---------|--------5-------7--------5---------|
|---/7-------7--------7--------7----|---/7-------7-------7---------7----|
|-----------------------------------|-----------------------------------|
|-----------------------------------|-----------------------------------|

                                                    ~~~~~~~~~~~~
|-----------------------------------|-----------------------------------|
|-----------------7-----------------|-------------------------------8---|
|--------5--------7-------5---------|---7(9)------(9)-------------------|
|---/7-------7--------7--------7----|-----------------------------------|
|-----------------------------------|-----------------------------------|
|-----------------------------------|-----------------------------------|

|--5--------------------------------|------------------------------------|
|------8-5----5-8-5---5-8-5---5-8-5-|----5--8--5-----5--8-----5----------|
|-----------7-------7-------7-------|--7----------7--------7-------7(9)--|
|-----------------------------------|------------------------------------|
|-----------------------------------|------------------------------------|
|-----------------------------------|------------------------------------|

                                           ~~~~~~
|----------5-------------------------------------|
|--7(9)-------8--5-----5-------------------------|
|-------------------7------7--5-----7-----5------|
|--------------------------------7---------------|
|------------------------------------------------|
|------------------------------------------------|

                     ~~~~~~~~~~~~~~~
|------------------------------------------|-------------------------------|
|---------------20(22)---------------20(22)|-----20(22)------------20(22)--|
|-----2/----------------------------------|-------------------------------|
|------------------------------------------|-------------------------------|
|------------------------------------------|-------------------------------|
|------------------------------------------|-------------------------------|
|------------------------------------------|-------------------------------|

|----17-------------------17-----------------17--------------17------------|
|-------20--17-20(22)--------20--17-20(22)------20-17-20(22)----20-17-20(22)
|--------------------------------------------------------------------------|
|--------------------------------------------------------------------------|
|--------------------------------------------------------------------------|
|--------------------------------------------------------------------------|

                                       this bar 2x    this bar 6x
|---------------------|--17-20/17---|17---17--------|-17----------|
|---20(22)------------|----------20-|-20---20/17----|-17/20/17----|
|---------------------|-------------|------------19-|----------19-|
|---------------------|-------------|---------------|-------------|
|---------------------|-------------|---------------|-------------|
|---------------------|-------------|---------------|-------------|

|---17\\-------------|--------------------------------------------|
|---17\\-------------|--------------------------------------------|
|----------------x/----|--x/---0------------------------------------|
|----------------------|-----------4(5)----4(5)---------------------|
|----------------------|---------------------------------0------0---|
|----------------------|--------------------------------------------|

          ~~~~~~~~~~~~~~~~~~~       This Bar 2x
|----------------------------|   |-------------------|
|------20(22)-(22)-(22)-(22)-|   |--14---14----14----|
|----------------------------|   |--14---14----14----|
|----------------------------|   |--14---14----14----|
|---0------------------------|   |---0----0-----0----|
|----------------------------|   |-------------------|

                   ~~~~~~~~
|--------------------------------|
|--14----------------------------|
|--14----------------------5---7-|
|--14-------------7--------------|
|---0--------0-------------------|
|--------------------------------|

 play bar 3x
|--------------------|   |----------5---------------------------------|
|------5--8--8/5-----|   |-5--85---------5--8/5-7/5------------------|
|-7(9)-----------7(9)|   |--------7------------------8/5-7/5---7------|
|--------------------|   |-----------------------------------7----7/5-|
|--------------------|   |--------------------------------------------|
|--------------------|   |--------------------------------------------|

|---------------------------------|-----------------------------------|
|---------------------------------|--2--------------------------------|
|---------------------------------|--2--------------------------------|
|--7/5-----7----------------------|--2--------------------------------|
|-------7-----7/5/3---------------|--0--------------------------------|
|---------------------------------|-----------------------------------|


Que te parecio? Calificalo con estrellas!!

Rating: 5.4/10 (107 votos)

Este fichero es trabajo propio de su transcriptor y representa su interpretación personal de la canción. El material contenido en esta página es para exclusivo uso privado, por lo que se prohibe su reproducción o retransmisión, así como su uso para fines comerciales.


Deja tus comentarios:

Letras de AC/DC
Letras de canciones | Musica Independiente