Acordes y tablaturas para guitarra

Acordes y Tablaturas
Usuario: Password:

Buscar:
Acordes y Tablaturas >> Letra A >> Acordes de AC/DC >> Hells Bells
Tablatura de Hells Bells, AC/DC

Hells Bells

AC/DC






                        "Hells Bells"
			    AC/DC
		       Young/Young/Johnson

Standard Tuning: EADGBe


LEGEND:
hb=half bend
fb=full bend
r=release bend
~~=vibrato
^=harmonic
()=Acciaccatura
[]=tied note
:::::=hold bend over notes, then release
:
/=legato slide
=shift slide
XXX=pickscrape

Notes: I take no credit for this tab.  A guy name prusche tabbed it in 
a tablature program, and I've done nothing but put it in text. All credit
goes to him and him only. 


Riff 1                                           End Riff 1
e|---------------------------------------------------------|
B|---------------------------------------------------------|
G|---9---7------5-----7-------9---7------5-------7---------|
D|-----7----7-----5-----7-------7----7------5--------5-5---|
A|-0----------0-----0-----0-0----------0------0------3-2-0-|
E|---------------------------------------------------------|

Rhy. Fig. 1                      End Rhy. Fig. 1
e|-----------------------------------------------|
B|-----------------------------------------------|
G|-----------------------------------------------|
D|-7-9-7---5-7-5-----5-5---7-9-7---5-7-5-----5-5-|
A|-7-7-7---5-5-5---0-3-2---7-7-7---5-5-5---0-3-2-|
E|-----------------------------------------------|

Rhy. Fig. 2        End Rhy. Fig. 2
e|-------------------------------|
B|-------------------------------|
G|-----------2-0-2---------------|
D|-0-2-0-2---0-0-0--0-0-0----5-5-|
A|-0-0-0-0-----------------0-3-2-|
E|-------------------------------|
                    PM---|

Rhy. Fig. 3 (1)                Rhy. Fig. 3 (2)                   End Rhy. Fig. 3
e|---2---2---2---2-2-2------3-|---------------------2---------------------3-----|
B|---3-3-3---3-3-3-3-3----5-3-|---------------------3-2-------------------3-----|
G|---2-0-2---2-0-2-2-2-0--5-0-|-------------------0-2-2-----------------0-0-----|
D|-0-0-0-0---0-0-0-0-0-0--5-0-|---9-7-9-----9-7-9-0-0-2---9-7-9---9-7-9-0-0-----|
A|------------------------3-x-|---7-5-5-----7-5-7-----0---7-5-7---7-5-7---x-----|
E|--------------------------3-|-0-----------------------0-----------------3-3hb-|

Rhy. Fig. 4                      End Rhy. Fig. 4
e|-----------------------------------------------|
B|-----------------------------------------------|
G|-----------------------------------------------|
D|-7-9-7---5-7-5-----5-5---7-9-7---5-7-5-----5-5-|
A|-7-7-7---5-5-5---0-3-2---7-7-7---5-5-5---0-3-2-|
E|-----------------------------------------------|
~~~~~~~~~~~~~~~~           ~~~~~~~~~~~~~~


Riff 2                   End Riff 2
e|-------------------------5-------|
B|-8-7hb-5^----------------5-7hb-7-|
G|-7-7------7-5hb------------7---7-|
D|----------------(5)h7~~~---------|
A|---------------------------------|
E|---------------------------------|

Rhy. Fig. 6         End Rhy. Fig. 6
e|---------------------------------|
B|--------------------2----[2]-----|
G|--------------------2----[2]-----|
D|--------------------2----[2]-----|
A|--------------------0----[0]-----|
E|-0----[0]------------------------|

Guitar Solo 
e|--------------------------------------------------|
B|--------------------------------------------------|
G|------------------------------2---------------7fb-|
D|-5h7~~~~--4h5-5~~~~---2h4--------(4)h7--[7]-------|
A|---------------------------0----------------------|
E|--------------------------------------------------|

e|------::::::::::::::::::::::::::---------------|
B|-8----:-8-8---8-8---8-8--8-8---:---------7---5-|
G|---7fb:-7-7---7-7---7-7--7-7---:7-5p0----7---5-|
D|--------------------------------------7----7---|
A|-----------------------------------------------|
E|-----------------------------------------------|

e|------------------------------------------------------------|
B|-------8~~~~~------7-7~~~~-----------8~~~~--------10--------|
G|-(7)/9-9~~~~~---0--7-7~~~~--5--(7)/9-9~~~~-(9)/11-11-11~~-9-|
D|------------------------------------------------------------|
A|------------------------------------------------------------|
E|------------------------------------------------------------|

e|--------------------------------------------------------------|
B|----13---------13-13---------13-13----------13----13----13----|
G|-14-14-(12)/14-14-14-(13)/14-14-14-13-13-14-14-14-14-14-14-14-|
D|--------------------------------------------------------------|
A|--------------------------------------------------------------|
E|--------------------------------------------------------------|

e|-10fb~~~-----:::::::---------------------------------------|
B|-13------12fb:-[12]:--1015--15--13----15----15~~~~-15----|
G|-------------------------14--14-----14----14--------14----|
D|--------------------------------------------------------16-|
A|-----------------------------------------------------------|
E|-----------------------------------------------------------|

e|---------17-------17------17fb-17fb::::-------------------------|
B|-15-17fb----17fb-----17fb-17---17--17-:17--15h18p15----15/12/15-|
G|----------------------------------------------------16----------|
D|----------------------------------------------------------------|
A|----------------------------------------------------------------|
E|----------------------------------------------------------------|

e|------------------------17------------------------------------------------17-|
B|------20fb------20---------20--17----------------------------20fb-20fb~~-----|
G|-19fb-19---19fb----19fb-----------19fbr19p17----19-19hb----------------------|
D|---------------------------------------------19---------19p17----------------|
A|-----------------------------------------------------------------------------|
E|-----------------------------------------------------------------------------|
                                                                  End Guitar Solo 
e|-17-20p17------17------------20fb--20hb--17------------------------------------|
B|----------20fb----20fb-20p17----------------20p17-19fb-19----------17~~--------|
G|----------------------------------------------------------19-16-19------19-19-|
D|-------------------------------------------------------------------------------|
A|-------------------------------------------------------------------------------|
E|-------------------------------------------------------------------------------|

Rhy. Fig 7         End Rhy. Fig. 7
e|------------------------------2-|
B|---------------------5--------3-|
G|-2------2------------5--------2-|
D|-2------2------------5--------0-|
A|-0------0------------3-----0----|
E|---3hb-------------3------------|

Outro Guitar Solo
e|------::::::17::::::---------------------------:::17::::------------------------|
B|------:--------19--:---------------------------:-----19:------------------------|
G|-19fb:-------------:19~~~~~-17~~~-19~~~-19-19fb:-------:19~~~~-17~~~-19~~~-19fb-|
D|--------------------------------------------------------------------------------|
A|--------------------------------------------------------------------------------|
E|--------------------------------------------------------------------------------|

e|------------------------------------------------------|
B|-20--------------------------------------------------|
G|------------------------------------------------------|
D|----------------------------------------(10)h12~~~-10-|
A|----------------12-10-12~~~~---12~~-12---------------|
E|------17-1715---------------------------------------|

e|---------------------------------------------------------------------|
B|-10fbr---10fb-10-----------------------------10fbr---10fb-10--20fb-|
G|-12---12-12---12-17hb-----------17-----------12---12-12---12-------|
D|-----------------------19-17h19-----19-19-19------------------------|
A|---------------------------------------------------------------------|
E|---------------------------------------------------------------------|

e|----17---------17------::::::::-------------------------17---------------------------|
B|-20----17-20fb----17-20:--20--:20--20fb-20fb-20fb-20fb----20-17------------------20-|
G|-----------------------------------------------------------------19fbr19p17-19fb-----|
D|-------------------------------------------------------------------------------------|
A|-------------------------------------------------------------------------------------|
E|-------------------------------------------------------------------------------------|

e|-------::::------------------------------------------------------------|
B|-------:--:20-20fb-20fb-20------------------19-17--XXXXXXXXX----2----2-|
G|-19fb~~:19:---19---19---19fbr19-19~~~-17----19-17--XXXXXXXXX7p5-2----2-|
D|-----------------------------------------19---------------------2----2-|
A|----------------------------------------------------------------0----0-|
E|------------------------------------------------------------------3hb--|

Order of "Hell's Bells"
Riff 1 (x6)
Rhy. Fig. 1 (x1)
Rhy. Fig. 2 w/Verse (x4)
Rhy. Fig. 3 (1) w/Pre Chorus (x2)
Rhy. Fig. 3 (2) w/Pre Chorus (x1)
Riff 1 w/Chorus (x2)
Rhy. Fig. 4 (x1)
Rhy. Fig. 2 w/Verse (x4)
Rhy. Fig. 3 (1) w/Pre Chorus (x2)
Rhy. Fig. 3 (2) w/Pre Chorus (x1)
Riff 1 w/Chorus (x2)
Riff 1 w/ Rhy. Fig. 6 (x1)
Guitar Solo (x1) w/Rhy. Fig. 7 (x5), and Rhy. Fig. 3 (1) (x2), and Rhy. Fig 3 (2) (x2)
Riff 1 w/Chorus (x2)
Outro Guitar Solo (x1) w/Riff 1 (x3), and Rhy. Fig. 7 (x3)


Que te parecio? Calificalo con estrellas!!

Rating: 6.8/10 (117 votos)

Este fichero es trabajo propio de su transcriptor y representa su interpretación personal de la canción. El material contenido en esta página es para exclusivo uso privado, por lo que se prohibe su reproducción o retransmisión, así como su uso para fines comerciales.


Deja tus comentarios:

Letras de AC/DC
Letras de canciones | Musica Independiente