Enviado por: el yonky
Agrandar Letra
Reducir Letra
Imprimir


Otras Versiones de Me Dijo:









Alex Campos, Me Dijo

5555---5---5--2222---2---2------------------------------------775
----474-474-------040-040---5555---5---5---7777---7-----775544---
--------------------------------474-474--------696-696-----------
-----------------------------------------------------------------

luego junto con trompetas:

5---55---54--2---22---------------------------775
-474--474-----040--040--5---55---77-----775544---
-------------------------474--474--696-----------
-------------------------------------------------
Aviso: Este fichero es trabajo propio de su transcriptor y representa su interpretación personal de la canción. El material contenido en esta página es para exclusivo uso privado, por lo que se prohibe su reproducción o retransmisión, así como su uso para fines comerciales.

Califica esta canción


Comentarios en Facebook