Acordes y tablaturas para guitarra

Acordes y Tablaturas
Usuario: Password:

Buscar:
Acordes y Tablaturas >> Letra A >> Acordes de AC/DC >> Girls Got Rhythm
Tablatura de Girls Got Rhythm, AC/DC

Girls Got Rhythm

AC/DC






 

|----------------------|--------------------|
|-3---1----------------|-3---1--------------|
|-2---0------2-2---5-2-|-2---0------2-2---2-|
|-0------2-4-------5-2-|-0------2-4-------2-|
|----------------0-----|----------------0-0-|
|----------------------|--------------------|

|-----------------------|--------------------|
|-----------------------|--------------------|
|-7-----5---------------|-7----5-----------2-|
|-7-----5---------------|-7----5-----------2-|
|-5-----3-----0-0---3-0-|-5----3-----0-0---0-|
|---------0-2-----2-----|--------0-2-----2---|

|-----3----------------|
|-3---3----------------|
|-2---2------2-2---5-2-|
|-0------2-4-------5-2-|
|----------------0-----|
|----------------------|

|----------------------|
|-------7--------------|
|-7-----7--------------|
|-7--------------------|
|-5----------0-0---3-0-|
|---------0-2-----2----|

|---------------------|
|---------------------|
|-4-4-4-4-4-----------|
|-4-4-4-4-4-2-2-2-2-2-|
|-2-2-2-2-2-2-2-2-2-2-|
|-----------0-0-0-0-0-|

solo 1

|------------------5-----5-5----------------------5-5-----5--|
|----------------5-------5-5----------------------5-5-----5--|
|-7~~~--5~~~-7b9-----7b9-----7b9r7--7~~--5~~~-7b9-----7b9----|
|------------------------------------------------------------|
|------------------------------------------------------------|
|------------------------------------------------------------|

|-8-------------5-5-----5-5-------8------------------------------5-5-----5--------|
|-7b9--5--------5-5-----5-5-------7b9--5----7b8-5----------------5-5-----5--------|
|--------5--7b9-----7b9-----7b9r7--------5--7b8-5-------5----7b9-----7b9----7b9r7-|
|--------------------------------------------------7-7----7-----------------------|
|---------------------------------------------------------------------------------|
|---------------------------------------------------------------------------------|

|------------------------------------------------17-17-------17-17-------17-17----------|
|----------7-5---7-5---7-5---7-5---7-5b6---------17-17-------17-17-------17-17-17-------|
|-5---7-5--7-5---7-5---------7-5---7-5b6---16b18-------16b18-------16b18-------17-16-14-|
|---7----------7-----7-----7-----7------------------------------------------------------|
|---------------------------------------------------------------------------------------|
|---------------------------------------------------------------------------------------|


|----------------------------------17-------------------------------20------20-|
|-------17--16b18r16--14-16b18r16--17--16b18r16--17-17----14--------20------20-|
|----14-17--16b18r16--14-16b18r16------16b18r16--14-14-16-----19b21----19b21---|
|-16---------------------------------------------------------------------------|
|------------------------------------------------------------------------------|
|------------------------------------------------------------------------------|

|-------20-20-------20-20-------20-20------20-20-------20-20-------20-20-20-20-20-20-|
|-------20-20-------20-20-------20-20------20-20-------20-20-------20-20-20-20-20-20-|
|-19b21-------19b21-------19b21-------19b21------19b21-------19b21-------------------|
|------------------------------------------------------------------------------------|
|------------------------------------------------------------------------------------|
|------------------------------------------------------------------------------------|




Que te parecio? Calificalo con estrellas!!

Rating: 3.8/10 (50 votos)

Este fichero es trabajo propio de su transcriptor y representa su interpretación personal de la canción. El material contenido en esta página es para exclusivo uso privado, por lo que se prohibe su reproducción o retransmisión, así como su uso para fines comerciales.


Deja tus comentarios:

Letras de AC/DC
Letras de canciones | Musica Independiente