Acordes y tablaturas para guitarra

Acordes y Tablaturas
Usuario: Password:

Buscar:
Acordes y Tablaturas >> Letra l >> Acordes de los de adentro >> Nubes negras
Acordes de Nubes negras, los de adentro

Nubes negras

Los de adentro






b.c.d.e.em.g.
 Aqui va otra buen tema de los de adentro

El ritmo de esta cancion es:

Rasgueo Abajo
Rasgueo Abajo
Rasgueo Arriba
Rasgueo Arriba
Rasgueo Abajo



Este es el arpegio de la canción.


          Em            C           G            D
E||-----------0-----------0-------------3---------------2-------
B||---------0-----------2--------------3--------------3---------
G||-------0-----------0--------------0--------------2-----------
D||-----------------------------------------------0-------------
A||----------------3--------------------------------------------
E||--0--------------------------3-------------------------------


Esta parte va el arpegio

INTRO: Em C G D

Em   C      G    D
Moriría por ti,
Em          C           G            D
por ti movería cielo y tierra si pudiera
Em          C           G            D
Cuanto daría por tenerte a mi lado,
Em          C           G    D     C
sin ti me sentiría acabado

aca va un bajo

E||-----------------------------------|
B||-----------------------------------|
G||-----------------------------------|
D||-----------------------------------|
A||----2--3---------------------------|
E||----------3--2--0------------------|


Ya empiesa el ritmo normal

Em        C           G   D
Ya la han visto por ahí,
Em              C           G            D
siempre tan distante E intocable, como siempre,
Em        C           G            D
eres el cielo el infierno de mi sueño
C        Em            G    B
Y te he soñado tantas veces

CORO:
Em      C           G        D
Nubes negras sobre mi corazón
Em      C           G        D
Nubes negras sin ti todo se acabaría
Em      C           G        D
Nubes negras sobre mi corazón
Em      C           G        D      C
Nubes negras sin ti me moriría

Em     C            G     D
No podría estar sin ella,
Em      C          G   D
Me moriría del dolor,
Em     C        G     D
No podría soportarlo,
Em          C           G   D
cuando no siento su calor,
C        Em            G    B
cuando no siento su calor ooooooooooh

CORO:
Em      C           G        D
Nubes negras sobre mi corazón
Em      C           G        D
Nubes negras sin ti todo se acabaría
Em      C           G        D
Nubes negras sobre mi corazón
Em      C           G        D      C
Nubes negras sin ti me moriría


Punteo

E||-------------------------------------------------------13--11
B||-12h13--13--13--12--10--13--12-------------------8--13-------
G||------------------------------12--9--5--7--9--7--------------
D||-------------------------------------------------------------
A||-------------------------------------------------------------
E||-------------------------------------------------------------

E||-------------11----9----7----5----3|
B||-13--11----------------------------|
G||---------11------9----7----5----3--|
D||-----------------------------------|
A||-----------------------------------|
E||-----------------------------------|


C                  G               Em
Uuuuuuuuu estoy cansado del juego
Em                C
No lo puedo soportar

CORO:
Em      C           G        D
Nubes negras sobre mi corazón
Em      C           G        D
Nubes negras sin ti todo se acabaría
Em      C           G        D
Nubes negras sobre mi corazón
Em      C           G        D      C
Nubes negras sin ti me moriría 

|ABEL|  

Que te parecio? Calificalo con estrellas!!

Rating: 8.5/10 (563 votos)

Este fichero es trabajo propio de su transcriptor y representa su interpretación personal de la canción. El material contenido en esta página es para exclusivo uso privado, por lo que se prohibe su reproducción o retransmisión, así como su uso para fines comerciales.


Comentario de abel01
Esta canción esta copiado por las personas de tus acordes pero la mejore con el arpegio y bajo espero que les guste
Deja tus comentarios:
Letras de canciones | Musica Independiente