Enviado por: xxblackxpinkxx
Agrandar Letra
Reducir Letra
Imprimir



NIRVANA, Smells Like Teen Spirit

              \'Smells like teen spirit\', Nirvana

===================================================
-Album: \"Nevermind\"
-Transcripto por: Seba A.
-Buenos aires, argentina, 2007
-email o msn por cualquier duda: [email protected]
___________________________________________________

INTRO/ACORDES PRINCIPALES/ESTRIBILLO:

e|---------------------------------------
B|---------------------------------------
G|---------------3-3-----------------6-6-
D|3--3-3-x-x-x-x-3-3--6--6-6-x-x-x-x-6-6-
A|3--3-3-x-x-x-x-1-1--6--6-6-x-x-x-x-4-4-
E|1--1-1-x-x-x-x-x----4--4-4-x-x-x-x-x---
[repite hasta los versos]

___________________________________________________

VERSOS:

\'Load up on guns,
Bring your friends
It\'s fun to lose and to pretend
She\'s over bored and self-assured
I know, I know a dirty words\'

e|----1v----------------------------------
B|1v--------------------------------------
G|----------------------------------------
D|----------------------------------------
A|----------------------------------------
E|----------------------------------------
[repite bastante, hasta el pre-estribillo]

___________________________________________________

PRE-ESTRIBILLO:

\'Hello, hello, hello, how low?
Hello, hello, hello, how low?
Hello, hello, hello, how low?
Hello, hello, hello.\'

Guitarra 1 hace:
e|--6---6---6---6---6---6---6---6---6---6v
B|5---5---5---5---5---5---5---5---5---5---
G|----------------------------------------
D|----------------------------------------
A|----------------------------------------
E|----------------------------------------
[repite hasta el estribillo]


Guitarra 2 hace:
e|-------------------------------
B|-------------------------------
G|-------------------------------
D|--------3-3-3-3---------6-6-6-6
A|3-3-3-3-1-1-1-1-6-6-6-6-4-4-4-4
E|1-1-1-1---------4-4-4-4--------

___________________________________________________


ESTRIBILLO:

\'With the lights out!, it\'s less dangerous!
Here we are now!, entertain us!
I feel stupid -and contagious!
Here we are now, entertain us!
A mullato!
An Albino!
A mosquito!
My Libido!\'

e|---------------------------------------
B|---------------------------------------
G|---------------3-3-----------------6-6-
D|3--3-3-x-x-x-x-3-3--6--6-6-x-x-x-x-6-6-
A|3--3-3-x-x-x-x-1-1--6--6-6-x-x-x-x-4-4-
E|1--1-1-x-x-x-x-x----4--4-4-x-x-x-x-x---
[repite hasta el break]


___________________________________________________


BREAK:

\'Yay\' [x2]

e|---------------|----------------|---------------|----------------|
B|---------------|----------------|---------------|----------------|
G|-------------3^|-------3-3------|-------------3^|-------3-3------|
D|-3--3-3-4-4----|-3-3-3-3-3--6-6-|-3--3-3-4-4----|-3-3-3-3-3--6-6-|
A|-3--3-3-4-4----|-3-3-3-1-1--6-6-|-3--3-3-4-4----|-3-3-3-1-1--6-6-|
E|-1--1-1-2-2----|-1-1-1------4-4-|-1--1-1-2-2----|-1-1-1------4-4-|

___________________________________________________

VERSOS:

I\'m worse at what I (Do) best
And for this gift I feel blessed
Our little group has always been
And always will until the end

___________________________________________________

PRE-ESTRIBILLO:

Hello, hello, hello, how low?
Hello, hello, hello, how low?
Hello, hello, hello, how low?
Hello, hello, hello.

___________________________________________________

ESTRIBILLO:

With the lights out, it\'s less dangerous
Here we are now, entertain us
I feel stupid and contagious
Here we are now, entertain us
A mullato!
An Albino!
A mosquito!
My Libido!

___________________________________________________

BREAK:

\'Yay!\'[x2]

e|---------------|----------------|---------------|----------------|
B|---------------|----------------|---------------|----------------|
G|-------------3^|-------3-3------|-------------3^|-------3-3------|
D|-3--3-3-4-4----|-3-3-3-3-3--6-6-|-3--3-3-4-4----|-3-3-3-3-3--6-6-|
A|-3--3-3-4-4----|-3-3-3-1-1--6-6-|-3--3-3-4-4----|-3-3-3-1-1--6-6-|
E|-1--1-1-2-2----|-1-1-1------4-4-|-1--1-1-2-2----|-1-1-1------4-4-|
___________________________________________________

SOLO DE GUITARRA:


e|--------------------------------------------
B|--------------------------------------------
G|---8-10-----8-8--6-5--6-5-------------------
D|10-------6v----------------8--6--8-8br-6----
A|-----------------------------------------8v-
E|--------------------------------------------

e|--------------------------------------------
B|--------------------------------------------
G|---8-10-----8-8--6-5--6-5-------------------
D|10-------6v----------------8--6--8-8br-6----
A|-----------------------------------------8v-
E|--------------------------------------------

e|-----------------------------------------------
B|-----------------------------------------------
G|-----------------------------------------------
D|6-5-6-5-6-5-6-5-6-5---6-5--6-5--6-5--6-5-6-5---
A|-------------------8-------------------------8-
E|-----------------------------------------------
[repite algunas veces más]

___________________________________________________

VERSOS:

\'And I forget just what I taste
oh yeah, I guess it makes me smile
I found it hard, it\'s hard to find
Oh well, whatever, nevermind \'

___________________________________________________

PRE-ESTRIBILLO:

\'Hello, hello, hello, how low?
Hello, hello, hello, how low?
Hello, hello, hello, how low?
Hello, hello, hello\'
___________________________________________________

ESTRIBILLO:

With the lights out, it\'s less dangerous
Here we are now, entertain us
I feel stupid and contagious
Here we are now, entertain us
A mullato!
An albino!
A mosquito!
My libido!

A denial![x9] 
Aviso: Este fichero es trabajo propio de su transcriptor y representa su interpretación personal de la canción. El material contenido en esta página es para exclusivo uso privado, por lo que se prohibe su reproducción o retransmisión, así como su uso para fines comerciales.

Califica esta canción


Comentarios en Facebook