Acordes y tablaturas para guitarra

Acordes y Tablaturas
Usuario: Password:

Buscar:
Acordes y Tablaturas >> Letra o >> Acordes de oasis >> Wonderwall
Tablatura de Wonderwall, oasis

Wonderwall

Oasis






                 'wonderwall', Oasis

-transcrpito por: Seba a.
-Msn email por cualquier duda o comentario: [email protected]
-buenos aires, argentina, 2007
-Album: What's the Story? (Morning Glory)
-Esto esta 100%, nl tengo ninguna duda
-parece dificil de leer, pero en realidad es muy facil.
________________________________________________________



INTRO/ACORDES QUE USA EN CASI TODA LA CANCIÓN:
e|3--3-3--3-3-3-3-3-3-3--3-3-3-3-3-3-3-3-3-3-3-3-3-3-
B|3--3-3--3-3-3-3-3-3-3--3-3-3-3-3-3-3-3-3-3-3-3-3-3-
G|0--0-0--0-0-0-0-0-0-0--2-2-2-2-2-2-2-2-2-2-2-2-2-2-
D|2--2-2--0-0-0-0-0-0-0--0-0-0-0-0-0-0-2-2-2-2-2-2-2-
A|2--2-2--2-2-2-2-2-2-2--0-0-0-0-0-0-0-0-0-0-0-0-0-0-
E|0--0-0--3-3-3-3-3-3-3--x-x-x-x-x-x-x-x-x-x-x-x-x-x-
    E         G            D           A 
[repite mucho hasta el estribillo]

ACOMPAÑAMIENTO DEL BAJO:
G|---------------------------------------------------
D|-----------------------0-0-0-0-0-0-0---------------
A|-------------------------------------0-0-0-0-0-0-0-
E|0--0-0--3-3-3-3-3-3-3------------------------------
   E            G          D             A
________________________________________________________

ESTRIBILLO:
e|3--3-3--3-3-3-3-3-3--3-3-3-3-3-3-3-3-3-3-3-3-
B|3--3-3--3-3-3-3-3-3--3-3-3-3-3-3-3-3-3-3-3-3-
G|0--0-0--0-0-0-0-0-0--0-0-0-0-0-0-0-0-0-0-0-0-
D|2--2-2--2-2-2-2-2-2--0-0-0-0-0-0-2-2-2-2-2-2-
A|3--3-3--2-2-2-2-2-2--2-2-2-2-2-2-2-2-2-2-2-2-
E|--------0------------3-3-3-3-3-3---0-0-0-0-0-
  C9           E           G            E

ACOMPAÑAMIENTO DEL BAJO:
G|---------------------------------------------
D|---------------------------------------------
A|3--3-3--------------------------3/7-7-7-7-7-7
E|--------0-0-0-0-0-0--3-3-3-3-3-3-------------
  C           E           G           E
_______________________________________________________
OUTTRO (usa de base los acordes del estribillo):
e|-----------
B|-----------
G|-----------
D|-----------
A|------3----
E|1-0-1---5v-
[repite varias veces]


Que te parecio? Calificalo con estrellas!!

Rating: 6.8/10 (415 votos)

Este fichero es trabajo propio de su transcriptor y representa su interpretación personal de la canción. El material contenido en esta página es para exclusivo uso privado, por lo que se prohibe su reproducción o retransmisión, así como su uso para fines comerciales.


Deja tus comentarios:

Letras de oasis
Letras de canciones | Musica Independiente